ISO-10303-21;
HEADER;
FILE_DESCRIPTION (( 'STEP AP214' ),
    '1' );
FILE_NAME ('BRM 12x3.step',
    '2020-09-08T10:22:19',
    ( '' ),
    ( '' ),
    'SwSTEP 2.0',
    'SolidWorks 2020',
    '' );
FILE_SCHEMA (( 'AUTOMOTIVE_DESIGN' ));
ENDSEC;

DATA;
#1 = DIRECTION ( 'NONE',  ( -1.000000000000000000, -0.0000000000000000000, -0.0000000000000000000 ) ) ;
#2 = STYLED_ITEM ( 'NONE', ( #207 ), #233 ) ;
#3 = AXIS2_PLACEMENT_3D ( 'NONE', #34, #89, #184 ) ;
#4 = VECTOR ( 'NONE', #32, 1000.000000000000000 ) ;
#5 = CARTESIAN_POINT ( 'NONE',  ( -5.517094017094013481, 7.347880794884119736E-16, -6.000000000000000000 ) ) ;
#6 = ORIENTED_EDGE ( 'NONE', *, *, #170, .F. ) ;
#7 = DIRECTION ( 'NONE',  ( -1.000000000000000000, -0.0000000000000000000, -0.0000000000000000000 ) ) ;
#8 = ORIENTED_EDGE ( 'NONE', *, *, #263, .F. ) ;
#9 = DIRECTION ( 'NONE',  ( 1.000000000000000000, 0.0000000000000000000, 0.0000000000000000000 ) ) ;
#10 = PRODUCT ( 'BRM 12x3', 'BRM 12x3', '', ( #182 ) ) ;
#11 = EDGE_LOOP ( 'NONE', ( #109, #37, #66, #179 ) ) ;
#12 = DIRECTION ( 'NONE',  ( 0.0000000000000000000, 0.0000000000000000000, 1.000000000000000000 ) ) ;
#13 = PRESENTATION_LAYER_ASSIGNMENT (  '', '', ( #14 ) ) ;
#14 = STYLED_ITEM ( 'NONE', ( #234 ), #20 ) ;
#15 = CARTESIAN_POINT ( 'NONE',  ( -6.017094017094014369, 0.0000000000000000000, 0.0000000000000000000 ) ) ;
#16 = EDGE_LOOP ( 'NONE', ( #136, #107, #183, #208 ) ) ;
#17 = EDGE_CURVE ( 'NONE', #83, #271, #169, .T. ) ;
#18 = APPLICATION_PROTOCOL_DEFINITION ( 'draft international standard', 'automotive_design', 1998, #171 ) ;
#19 = DIRECTION ( 'NONE',  ( -1.000000000000000000, -0.0000000000000000000, -0.0000000000000000000 ) ) ;
#20 = MANIFOLD_SOLID_BREP ( 'Chamfer1', #309 ) ;
#21 = DIRECTION ( 'NONE',  ( 0.0000000000000000000, 0.0000000000000000000, 1.000000000000000000 ) ) ;
#22 = CONICAL_SURFACE ( 'NONE', #288, 6.000000000000000000, 0.7853981633974500554 ) ;
#23 = EDGE_CURVE ( 'NONE', #132, #47, #118, .T. ) ;
#24 = DIRECTION ( 'NONE',  ( -0.0000000000000000000, 0.0000000000000000000, 1.000000000000000000 ) ) ;
#25 = CARTESIAN_POINT ( 'NONE',  ( -5.517094017094013481, 0.0000000000000000000, 0.0000000000000000000 ) ) ;
#26 = CARTESIAN_POINT ( 'NONE',  ( -5.517094017094013481, 0.0000000000000000000, 0.0000000000000000000 ) ) ;
#27 = CIRCLE ( 'NONE', #303, 6.000000000000000000 ) ;
#28 = FACE_OUTER_BOUND ( 'NONE', #157, .T. ) ;
#29 = DIRECTION ( 'NONE',  ( 0.7071067811865493491, 8.659560562354910671E-17, 0.7071067811865456854 ) ) ;
#30 = VECTOR ( 'NONE', #29, 1000.000000000000000 ) ;
#31 = ADVANCED_FACE ( 'NONE', ( #257 ), #68, .F. ) ;
#32 = DIRECTION ( 'NONE',  ( -1.000000000000000000, -0.0000000000000000000, -0.0000000000000000000 ) ) ;
#33 = ORIENTED_EDGE ( 'NONE', *, *, #177, .F. ) ;
#34 = CARTESIAN_POINT ( 'NONE',  ( -6.017094017094014369, 0.0000000000000000000, 0.0000000000000000000 ) ) ;
#35 = EDGE_CURVE ( 'NONE', #47, #285, #42, .T. ) ;
#36 = ORIENTED_EDGE ( 'NONE', *, *, #286, .F. ) ;
#37 = ORIENTED_EDGE ( 'NONE', *, *, #170, .T. ) ;
#38 = APPLICATION_PROTOCOL_DEFINITION ( 'draft international standard', 'automotive_design', 1998, #80 ) ;
#39 = AXIS2_PLACEMENT_3D ( 'NONE', #124, #218, #57 ) ;
#40 = AXIS2_PLACEMENT_3D ( 'NONE', #139, #19, #21 ) ;
#41 = ORIENTED_EDGE ( 'NONE', *, *, #175, .F. ) ;
#42 = LINE ( 'NONE', #262, #265 ) ;
#43 =( NAMED_UNIT ( * ) PLANE_ANGLE_UNIT ( ) SI_UNIT ( $, .RADIAN. ) );
#44 = EDGE_CURVE ( 'NONE', #213, #84, #212, .T. ) ;
#45 = EDGE_LOOP ( 'NONE', ( #6, #249, #87, #237 ) ) ;
#46 = CIRCLE ( 'NONE', #180, 6.499999999999998224 ) ;
#47 = VERTEX_POINT ( 'NONE', #93 ) ;
#48 = DIRECTION ( 'NONE',  ( -0.7071067811865463515, 0.0000000000000000000, 0.7071067811865487940 ) ) ;
#49 = CARTESIAN_POINT ( 'NONE',  ( -46.22222222222222143, 0.0000000000000000000, 6.000000000000000000 ) ) ;
#50 = AXIS2_PLACEMENT_3D ( 'NONE', #76, #289, #56 ) ;
#51 = PRODUCT_DEFINITION ( 'UNKNOWN', '', #141, #105 ) ;
#52 = CARTESIAN_POINT ( 'NONE',  ( 17.48290598290598652, 0.0000000000000000000, 6.000000000000000000 ) ) ;
#53 = DIRECTION ( 'NONE',  ( 1.000000000000000000, -0.0000000000000000000, -0.0000000000000000000 ) ) ;
#54 = DIRECTION ( 'NONE',  ( 0.0000000000000000000, 0.0000000000000000000, 1.000000000000000000 ) ) ;
#55 = ADVANCED_FACE ( 'NONE', ( #191 ), #297, .F. ) ;
#56 = DIRECTION ( 'NONE',  ( 0.0000000000000000000, 0.0000000000000000000, 1.000000000000000000 ) ) ;
#57 = DIRECTION ( 'NONE',  ( 0.0000000000000000000, 0.0000000000000000000, 1.000000000000000000 ) ) ;
#58 = ORIENTED_EDGE ( 'NONE', *, *, #252, .T. ) ;
#59 = EDGE_CURVE ( 'NONE', #213, #83, #125, .T. ) ;
#60 = CONICAL_SURFACE ( 'NONE', #39, 6.000000000000000000, 0.7853981633974500554 ) ;
#61 = LINE ( 'NONE', #5, #226 ) ;
#62 = AXIS2_PLACEMENT_3D ( 'NONE', #15, #149, #221 ) ;
#63 = COLOUR_RGB ( '',0.7921568627450980005, 0.8196078431372548767, 0.9333333333333333481 ) ;
#64 = ORIENTED_EDGE ( 'NONE', *, *, #88, .F. ) ;
#65 = CARTESIAN_POINT ( 'NONE',  ( -46.22222222222222143, 0.0000000000000000000, 0.0000000000000000000 ) ) ;
#66 = ORIENTED_EDGE ( 'NONE', *, *, #17, .F. ) ;
#67 = DIRECTION ( 'NONE',  ( 0.0000000000000000000, 0.0000000000000000000, -1.000000000000000000 ) ) ;
#68 = CONICAL_SURFACE ( 'NONE', #73, 6.499999999999998224, 0.7853981633974457255 ) ;
#69 = SURFACE_SIDE_STYLE ('',( #306 ) ) ;
#70 = DIRECTION ( 'NONE',  ( 1.000000000000000000, -0.0000000000000000000, -0.0000000000000000000 ) ) ;
#71 = ADVANCED_FACE ( 'NONE', ( #143 ), #101, .F. ) ;
#72 = LINE ( 'NONE', #120, #168 ) ;
#73 = AXIS2_PLACEMENT_3D ( 'NONE', #159, #91, #111 ) ;
#74 = DIRECTION ( 'NONE',  ( -1.000000000000000000, -0.0000000000000000000, -0.0000000000000000000 ) ) ;
#75 = DIRECTION ( 'NONE',  ( 0.0000000000000000000, 0.0000000000000000000, 1.000000000000000000 ) ) ;
#76 = CARTESIAN_POINT ( 'NONE',  ( -46.22222222222222143, 0.0000000000000000000, 0.0000000000000000000 ) ) ;
#77 = CIRCLE ( 'NONE', #62, 6.500000000000002665 ) ;
#78 = CARTESIAN_POINT ( 'NONE',  ( 17.98290598290598652, 0.0000000000000000000, 0.0000000000000000000 ) ) ;
#79 = ADVANCED_FACE ( 'NONE', ( #311, #314 ), #264, .F. ) ;
#80 = APPLICATION_CONTEXT ( 'automotive_design' ) ;
#81 = EDGE_LOOP ( 'NONE', ( #298, #206, #211, #223 ) ) ;
#82 = DIRECTION ( 'NONE',  ( -0.7071067811865463515, 8.659560562354948882E-17, -0.7071067811865487940 ) ) ;
#83 = VERTEX_POINT ( 'NONE', #166 ) ;
#84 = VERTEX_POINT ( 'NONE', #52 ) ;
#85 = VERTEX_POINT ( 'NONE', #215 ) ;
#86 = ORIENTED_EDGE ( 'NONE', *, *, #263, .T. ) ;
#87 = ORIENTED_EDGE ( 'NONE', *, *, #59, .T. ) ;
#88 = EDGE_CURVE ( 'NONE', #47, #132, #27, .T. ) ;
#89 = DIRECTION ( 'NONE',  ( 1.000000000000000000, 0.0000000000000000000, 0.0000000000000000000 ) ) ;
#90 = ORIENTED_EDGE ( 'NONE', *, *, #196, .T. ) ;
#91 = DIRECTION ( 'NONE',  ( 1.000000000000000000, -0.0000000000000000000, -0.0000000000000000000 ) ) ;
#92 = CIRCLE ( 'NONE', #255, 13.00000000000000000 ) ;
#93 = CARTESIAN_POINT ( 'NONE',  ( -5.517094017094013481, 0.0000000000000000000, 6.000000000000000000 ) ) ;
#94 = DIRECTION ( 'NONE',  ( 0.0000000000000000000, 0.0000000000000000000, -1.000000000000000000 ) ) ;
#95 = DIRECTION ( 'NONE',  ( -1.000000000000000000, -0.0000000000000000000, -0.0000000000000000000 ) ) ;
#96 = VECTOR ( 'NONE', #95, 1000.000000000000000 ) ;
#97 = EDGE_CURVE ( 'NONE', #84, #213, #110, .T. ) ;
#98 = DIRECTION ( 'NONE',  ( 0.0000000000000000000, 0.0000000000000000000, 1.000000000000000000 ) ) ;
#99 = EDGE_CURVE ( 'NONE', #84, #47, #193, .T. ) ;
#100 = CARTESIAN_POINT ( 'NONE',  ( -46.22222222222222143, 0.0000000000000000000, 0.0000000000000000000 ) ) ;
#101 = CYLINDRICAL_SURFACE ( 'NONE', #274, 6.000000000000000000 ) ;
#102 = MECHANICAL_DESIGN_GEOMETRIC_PRESENTATION_REPRESENTATION (  '', ( #14 ), #236 ) ;
#103 = CYLINDRICAL_SURFACE ( 'NONE', #152, 13.00000000000000000 ) ;
#104 = ORIENTED_EDGE ( 'NONE', *, *, #268, .T. ) ;
#105 = PRODUCT_DEFINITION_CONTEXT ( 'detailed design', #171, 'design' ) ;
#106 = CARTESIAN_POINT ( 'NONE',  ( -46.22222222222222143, 0.0000000000000000000, 0.0000000000000000000 ) ) ;
#107 = ORIENTED_EDGE ( 'NONE', *, *, #286, .T. ) ;
#108 =( NAMED_UNIT ( * ) SI_UNIT ( $, .STERADIAN. ) SOLID_ANGLE_UNIT ( ) );
#109 = ORIENTED_EDGE ( 'NONE', *, *, #97, .F. ) ;
#110 = CIRCLE ( 'NONE', #204, 6.000000000000000000 ) ;
#111 = DIRECTION ( 'NONE',  ( 0.0000000000000000000, 0.0000000000000000000, -1.000000000000000000 ) ) ;
#112 = DIRECTION ( 'NONE',  ( -1.000000000000000000, -0.0000000000000000000, -0.0000000000000000000 ) ) ;
#113 = AXIS2_PLACEMENT_3D ( 'NONE', #243, #241, #94 ) ;
#114 = LINE ( 'NONE', #131, #194 ) ;
#115 = SURFACE_STYLE_USAGE ( .BOTH. , #146 ) ;
#116 =( NAMED_UNIT ( * ) PLANE_ANGLE_UNIT ( ) SI_UNIT ( $, .RADIAN. ) );
#117 = EDGE_CURVE ( 'NONE', #85, #251, #242, .T. ) ;
#118 = CIRCLE ( 'NONE', #123, 6.000000000000000000 ) ;
#119 = DIRECTION ( 'NONE',  ( 0.0000000000000000000, 0.0000000000000000000, 1.000000000000000000 ) ) ;
#120 = CARTESIAN_POINT ( 'NONE',  ( -46.22222222222222143, 0.0000000000000000000, 13.00000000000000000 ) ) ;
#121 = MECHANICAL_DESIGN_GEOMETRIC_PRESENTATION_REPRESENTATION (  '', ( #2 ), #301 ) ;
#122 = CARTESIAN_POINT ( 'NONE',  ( 17.98290598290598652, 0.0000000000000000000, 0.0000000000000000000 ) ) ;
#123 = AXIS2_PLACEMENT_3D ( 'NONE', #305, #308, #67 ) ;
#124 = CARTESIAN_POINT ( 'NONE',  ( -5.517094017094013481, 0.0000000000000000000, 0.0000000000000000000 ) ) ;
#125 = LINE ( 'NONE', #267, #158 ) ;
#126 =( LENGTH_UNIT ( ) NAMED_UNIT ( * ) SI_UNIT ( .MILLI., .METRE. ) );
#127 = SURFACE_STYLE_FILL_AREA ( #190 ) ;
#128 = CARTESIAN_POINT ( 'NONE',  ( -6.017094017094014369, 7.960204194457798435E-16, -6.500000000000002665 ) ) ;
#129 = ORIENTED_EDGE ( 'NONE', *, *, #35, .T. ) ;
#130 = DIRECTION ( 'NONE',  ( -1.000000000000000000, -0.0000000000000000000, -0.0000000000000000000 ) ) ;
#131 = CARTESIAN_POINT ( 'NONE',  ( -46.22222222222222143, 1.592040838891559095E-15, -13.00000000000000000 ) ) ;
#132 = VERTEX_POINT ( 'NONE', #292 ) ;
#133 = AXIS2_PLACEMENT_3D ( 'NONE', #122, #239, #240 ) ;
#134 = EDGE_LOOP ( 'NONE', ( #36, #300, #273, #201 ) ) ;
#135 = PRODUCT_RELATED_PRODUCT_CATEGORY ( 'part', '', ( #10 ) ) ;
#136 = ORIENTED_EDGE ( 'NONE', *, *, #97, .T. ) ;
#137 =( LENGTH_UNIT ( ) NAMED_UNIT ( * ) SI_UNIT ( .MILLI., .METRE. ) );
#138 = ORIENTED_EDGE ( 'NONE', *, *, #23, .F. ) ;
#139 = CARTESIAN_POINT ( 'NONE',  ( 17.98290598290598652, 0.0000000000000000000, 0.0000000000000000000 ) ) ;
#140 = CARTESIAN_POINT ( 'NONE',  ( 17.48290598290598652, 0.0000000000000000000, 0.0000000000000000000 ) ) ;
#141 = PRODUCT_DEFINITION_FORMATION_WITH_SPECIFIED_SOURCE ( 'ANY', '', #10, .NOT_KNOWN. ) ;
#142 = FACE_BOUND ( 'NONE', #295, .T. ) ;
#143 = FACE_OUTER_BOUND ( 'NONE', #16, .T. ) ;
#144 = DIRECTION ( 'NONE',  ( -1.000000000000000000, 0.0000000000000000000, 0.0000000000000000000 ) ) ;
#145 = CARTESIAN_POINT ( 'NONE',  ( 17.48290598290598652, 7.347880794884119736E-16, -6.000000000000000000 ) ) ;
#146 = SURFACE_SIDE_STYLE ('',( #127 ) ) ;
#147 = CARTESIAN_POINT ( 'NONE',  ( -6.017094017094014369, 0.0000000000000000000, 0.0000000000000000000 ) ) ;
#148 = ADVANCED_FACE ( 'NONE', ( #310 ), #293, .T. ) ;
#149 = DIRECTION ( 'NONE',  ( 1.000000000000000000, 0.0000000000000000000, 0.0000000000000000000 ) ) ;
#150 = CARTESIAN_POINT ( 'NONE',  ( -6.017094017094014369, 0.0000000000000000000, 0.0000000000000000000 ) ) ;
#151 = EDGE_LOOP ( 'NONE', ( #104, #278 ) ) ;
#152 = AXIS2_PLACEMENT_3D ( 'NONE', #106, #7, #200 ) ;
#153 = CARTESIAN_POINT ( 'NONE',  ( 17.98290598290598652, 1.592040838891559095E-15, -13.00000000000000000 ) ) ;
#154 = ORIENTED_EDGE ( 'NONE', *, *, #291, .F. ) ;
#155 = ORIENTED_EDGE ( 'NONE', *, *, #291, .T. ) ;
#156 = EDGE_LOOP ( 'NONE', ( #203, #64, #129, #172 ) ) ;
#157 = EDGE_LOOP ( 'NONE', ( #138, #58, #8, #205 ) ) ;
#158 = VECTOR ( 'NONE', #161, 1000.000000000000000 ) ;
#159 = CARTESIAN_POINT ( 'NONE',  ( 17.98290598290598652, 0.0000000000000000000, 0.0000000000000000000 ) ) ;
#160 =( NAMED_UNIT ( * ) SI_UNIT ( $, .STERADIAN. ) SOLID_ANGLE_UNIT ( ) );
#161 = DIRECTION ( 'NONE',  ( 0.7071067811865493491, 0.0000000000000000000, -0.7071067811865456854 ) ) ;
#162 = DIRECTION ( 'NONE',  ( 0.0000000000000000000, 0.0000000000000000000, 1.000000000000000000 ) ) ;
#163 = AXIS2_PLACEMENT_3D ( 'NONE', #147, #167, #266 ) ;
#164 = ADVANCED_FACE ( 'NONE', ( #142, #312 ), #165, .F. ) ;
#165 = PLANE ( 'NONE',  #113 ) ;
#166 = CARTESIAN_POINT ( 'NONE',  ( 17.98290598290598652, 0.0000000000000000000, -6.499999999999998224 ) ) ;
#167 = DIRECTION ( 'NONE',  ( -1.000000000000000000, -0.0000000000000000000, -0.0000000000000000000 ) ) ;
#168 = VECTOR ( 'NONE', #270, 1000.000000000000000 ) ;
#169 = CIRCLE ( 'NONE', #40, 6.499999999999998224 ) ;
#170 = EDGE_CURVE ( 'NONE', #84, #271, #192, .T. ) ;
#171 = APPLICATION_CONTEXT ( 'automotive_design' ) ;
#172 = ORIENTED_EDGE ( 'NONE', *, *, #275, .F. ) ;
#173 = DIRECTION ( 'NONE',  ( -1.000000000000000000, -0.0000000000000000000, -0.0000000000000000000 ) ) ;
#174 = AXIS2_PLACEMENT_3D ( 'NONE', #198, #1, #98 ) ;
#175 = EDGE_CURVE ( 'NONE', #254, #251, #72, .T. ) ;
#176 = UNCERTAINTY_MEASURE_WITH_UNIT (LENGTH_MEASURE( 1.000000000000000082E-05 ), #210, 'distance_accuracy_value', 'NONE');
#177 = EDGE_CURVE ( 'NONE', #261, #254, #181, .T. ) ;
#178 = ORIENTED_EDGE ( 'NONE', *, *, #268, .F. ) ;
#179 = ORIENTED_EDGE ( 'NONE', *, *, #59, .F. ) ;
#180 = AXIS2_PLACEMENT_3D ( 'NONE', #294, #269, #54 ) ;
#181 = CIRCLE ( 'NONE', #174, 13.00000000000000000 ) ;
#182 = PRODUCT_CONTEXT ( 'NONE', #80, 'mechanical' ) ;
#183 = ORIENTED_EDGE ( 'NONE', *, *, #23, .T. ) ;
#184 = DIRECTION ( 'NONE',  ( 0.0000000000000000000, 0.0000000000000000000, -1.000000000000000000 ) ) ;
#185 = SHAPE_DEFINITION_REPRESENTATION ( #220, #233 ) ;
#186 = ORIENTED_EDGE ( 'NONE', *, *, #275, .T. ) ;
#187 = ADVANCED_FACE ( 'NONE', ( #195 ), #22, .F. ) ;
#188 = AXIS2_PLACEMENT_3D ( 'NONE', #65, #173, #258 ) ;
#189 = EDGE_LOOP ( 'NONE', ( #154, #33 ) ) ;
#190 = FILL_AREA_STYLE ('',( #229 ) ) ;
#191 = FACE_OUTER_BOUND ( 'NONE', #45, .T. ) ;
#192 = LINE ( 'NONE', #287, #30 ) ;
#193 = LINE ( 'NONE', #49, #96 ) ;
#194 = VECTOR ( 'NONE', #130, 1000.000000000000000 ) ;
#195 = FACE_OUTER_BOUND ( 'NONE', #156, .T. ) ;
#196 = EDGE_CURVE ( 'NONE', #271, #83, #46, .T. ) ;
#197 = DIRECTION ( 'NONE',  ( 0.0000000000000000000, 0.0000000000000000000, -1.000000000000000000 ) ) ;
#198 = CARTESIAN_POINT ( 'NONE',  ( 17.98290598290598652, 0.0000000000000000000, 0.0000000000000000000 ) ) ;
#199 = CIRCLE ( 'NONE', #3, 6.500000000000002665 ) ;
#200 = DIRECTION ( 'NONE',  ( 0.0000000000000000000, 0.0000000000000000000, 1.000000000000000000 ) ) ;
#201 = ORIENTED_EDGE ( 'NONE', *, *, #88, .T. ) ;
#202 = CARTESIAN_POINT ( 'NONE',  ( 17.98290598290598652, 7.960204194457793505E-16, 6.499999999999998224 ) ) ;
#203 = ORIENTED_EDGE ( 'NONE', *, *, #252, .F. ) ;
#204 = AXIS2_PLACEMENT_3D ( 'NONE', #244, #53, #162 ) ;
#205 = ORIENTED_EDGE ( 'NONE', *, *, #35, .F. ) ;
#206 = ORIENTED_EDGE ( 'NONE', *, *, #177, .T. ) ;
#207 = PRESENTATION_STYLE_ASSIGNMENT (( #115 ) ) ;
#208 = ORIENTED_EDGE ( 'NONE', *, *, #99, .F. ) ;
#209 = CARTESIAN_POINT ( 'NONE',  ( -46.22222222222222143, 7.347880794884119736E-16, -6.000000000000000000 ) ) ;
#210 =( LENGTH_UNIT ( ) NAMED_UNIT ( * ) SI_UNIT ( .MILLI., .METRE. ) );
#211 = ORIENTED_EDGE ( 'NONE', *, *, #175, .T. ) ;
#212 = CIRCLE ( 'NONE', #282, 6.000000000000000000 ) ;
#213 = VERTEX_POINT ( 'NONE', #145 ) ;
#214 = CARTESIAN_POINT ( 'NONE',  ( 17.98290598290598652, 13.00000000000000000, 0.0000000000000000000 ) ) ;
#215 = CARTESIAN_POINT ( 'NONE',  ( -6.017094017094014369, 1.592040838891559095E-15, -13.00000000000000000 ) ) ;
#216 = AXIS2_PLACEMENT_3D ( 'NONE', #78, #235, #248 ) ;
#217 = DIRECTION ( 'NONE',  ( -1.000000000000000000, 0.0000000000000000000, -0.0000000000000000000 ) ) ;
#218 = DIRECTION ( 'NONE',  ( -1.000000000000000000, 0.0000000000000000000, 0.0000000000000000000 ) ) ;
#219 = DIRECTION ( 'NONE',  ( -1.000000000000000000, 0.0000000000000000000, 0.0000000000000000000 ) ) ;
#220 = PRODUCT_DEFINITION_SHAPE ( 'NONE', 'NONE',  #51 ) ;
#221 = DIRECTION ( 'NONE',  ( 0.0000000000000000000, 0.0000000000000000000, -1.000000000000000000 ) ) ;
#222 = CIRCLE ( 'NONE', #216, 13.00000000000000000 ) ;
#223 = ORIENTED_EDGE ( 'NONE', *, *, #117, .F. ) ;
#224 = CARTESIAN_POINT ( 'NONE',  ( 17.98290598290598652, 0.0000000000000000000, 13.00000000000000000 ) ) ;
#225 = CYLINDRICAL_SURFACE ( 'NONE', #188, 6.000000000000000000 ) ;
#226 = VECTOR ( 'NONE', #82, 1000.000000000000000 ) ;
#227 = ADVANCED_FACE ( 'NONE', ( #28 ), #60, .F. ) ;
#228 = ADVANCED_FACE ( 'NONE', ( #296 ), #103, .T. ) ;
#229 = FILL_AREA_STYLE_COLOUR ( '', #260 ) ;
#230 = FILL_AREA_STYLE_COLOUR ( '', #63 ) ;
#231 = CARTESIAN_POINT ( 'NONE',  ( -6.017094017094014369, 0.0000000000000000000, 6.500000000000002665 ) ) ;
#232 =( NAMED_UNIT ( * ) PLANE_ANGLE_UNIT ( ) SI_UNIT ( $, .RADIAN. ) );
#233 = ADVANCED_BREP_SHAPE_REPRESENTATION ( 'BRM 12x3', ( #20, #253 ), #272 ) ;
#234 = PRESENTATION_STYLE_ASSIGNMENT (( #302 ) ) ;
#235 = DIRECTION ( 'NONE',  ( -1.000000000000000000, -0.0000000000000000000, -0.0000000000000000000 ) ) ;
#236 =( GEOMETRIC_REPRESENTATION_CONTEXT ( 3 ) GLOBAL_UNCERTAINTY_ASSIGNED_CONTEXT ( ( #176 ) ) GLOBAL_UNIT_ASSIGNED_CONTEXT ( ( #210, #116, #160 ) ) REPRESENTATION_CONTEXT ( 'NONE', 'WORKASPACE' ) );
#237 = ORIENTED_EDGE ( 'NONE', *, *, #196, .F. ) ;
#238 = DIRECTION ( 'NONE',  ( 0.0000000000000000000, 0.0000000000000000000, 1.000000000000000000 ) ) ;
#239 = DIRECTION ( 'NONE',  ( 1.000000000000000000, -0.0000000000000000000, -0.0000000000000000000 ) ) ;
#240 = DIRECTION ( 'NONE',  ( 0.0000000000000000000, 0.0000000000000000000, -1.000000000000000000 ) ) ;
#241 = DIRECTION ( 'NONE',  ( 1.000000000000000000, 0.0000000000000000000, 0.0000000000000000000 ) ) ;
#242 = CIRCLE ( 'NONE', #163, 13.00000000000000000 ) ;
#243 = CARTESIAN_POINT ( 'NONE',  ( -6.017094017094014369, 6.000000000000000000, 0.0000000000000000000 ) ) ;
#244 = CARTESIAN_POINT ( 'NONE',  ( 17.48290598290598652, 0.0000000000000000000, 0.0000000000000000000 ) ) ;
#245 = FACE_OUTER_BOUND ( 'NONE', #134, .T. ) ;
#246 = AXIS2_PLACEMENT_3D ( 'NONE', #214, #217, #24 ) ;
#247 = VERTEX_POINT ( 'NONE', #128 ) ;
#248 = DIRECTION ( 'NONE',  ( 0.0000000000000000000, 0.0000000000000000000, 1.000000000000000000 ) ) ;
#249 = ORIENTED_EDGE ( 'NONE', *, *, #44, .F. ) ;
#250 = CARTESIAN_POINT ( 'NONE',  ( -6.017094017094014369, 0.0000000000000000000, 13.00000000000000000 ) ) ;
#251 = VERTEX_POINT ( 'NONE', #250 ) ;
#252 = EDGE_CURVE ( 'NONE', #132, #247, #61, .T. ) ;
#253 = AXIS2_PLACEMENT_3D ( 'NONE', #299, #304, #9 ) ;
#254 = VERTEX_POINT ( 'NONE', #224 ) ;
#255 = AXIS2_PLACEMENT_3D ( 'NONE', #150, #112, #12 ) ;
#256 = ORIENTED_EDGE ( 'NONE', *, *, #17, .T. ) ;
#257 = FACE_OUTER_BOUND ( 'NONE', #11, .T. ) ;
#258 = DIRECTION ( 'NONE',  ( 0.0000000000000000000, 0.0000000000000000000, 1.000000000000000000 ) ) ;
#259 = FILL_AREA_STYLE ('',( #230 ) ) ;
#260 = COLOUR_RGB ( '',0.7921568627450980005, 0.8196078431372548767, 0.9333333333333333481 ) ;
#261 = VERTEX_POINT ( 'NONE', #153 ) ;
#262 = CARTESIAN_POINT ( 'NONE',  ( -5.517094017094013481, 0.0000000000000000000, 6.000000000000000000 ) ) ;
#263 = EDGE_CURVE ( 'NONE', #285, #247, #77, .T. ) ;
#264 = PLANE ( 'NONE',  #246 ) ;
#265 = VECTOR ( 'NONE', #48, 1000.000000000000000 ) ;
#266 = DIRECTION ( 'NONE',  ( 0.0000000000000000000, 0.0000000000000000000, 1.000000000000000000 ) ) ;
#267 = CARTESIAN_POINT ( 'NONE',  ( 17.98290598290598652, 0.0000000000000000000, -6.499999999999998224 ) ) ;
#268 = EDGE_CURVE ( 'NONE', #251, #85, #92, .T. ) ;
#269 = DIRECTION ( 'NONE',  ( -1.000000000000000000, -0.0000000000000000000, -0.0000000000000000000 ) ) ;
#270 = DIRECTION ( 'NONE',  ( -1.000000000000000000, -0.0000000000000000000, -0.0000000000000000000 ) ) ;
#271 = VERTEX_POINT ( 'NONE', #202 ) ;
#272 =( GEOMETRIC_REPRESENTATION_CONTEXT ( 3 ) GLOBAL_UNCERTAINTY_ASSIGNED_CONTEXT ( ( #313 ) ) GLOBAL_UNIT_ASSIGNED_CONTEXT ( ( #126, #43, #108 ) ) REPRESENTATION_CONTEXT ( 'NONE', 'WORKASPACE' ) );
#273 = ORIENTED_EDGE ( 'NONE', *, *, #99, .T. ) ;
#274 = AXIS2_PLACEMENT_3D ( 'NONE', #100, #74, #119 ) ;
#275 = EDGE_CURVE ( 'NONE', #247, #285, #199, .T. ) ;
#276 = ORIENTED_EDGE ( 'NONE', *, *, #283, .T. ) ;
#277 = LINE ( 'NONE', #209, #4 ) ;
#278 = ORIENTED_EDGE ( 'NONE', *, *, #117, .T. ) ;
#279 = PRESENTATION_LAYER_ASSIGNMENT (  '', '', ( #2 ) ) ;
#280 =( NAMED_UNIT ( * ) SI_UNIT ( $, .STERADIAN. ) SOLID_ANGLE_UNIT ( ) );
#281 = EDGE_LOOP ( 'NONE', ( #256, #90 ) ) ;
#282 = AXIS2_PLACEMENT_3D ( 'NONE', #140, #70, #238 ) ;
#283 = EDGE_CURVE ( 'NONE', #261, #85, #114, .T. ) ;
#284 = EDGE_LOOP ( 'NONE', ( #155, #276, #178, #41 ) ) ;
#285 = VERTEX_POINT ( 'NONE', #231 ) ;
#286 = EDGE_CURVE ( 'NONE', #213, #132, #277, .T. ) ;
#287 = CARTESIAN_POINT ( 'NONE',  ( 17.98290598290598652, 7.960204194457793505E-16, 6.499999999999998224 ) ) ;
#288 = AXIS2_PLACEMENT_3D ( 'NONE', #25, #219, #75 ) ;
#289 = DIRECTION ( 'NONE',  ( -1.000000000000000000, -0.0000000000000000000, -0.0000000000000000000 ) ) ;
#290 = UNCERTAINTY_MEASURE_WITH_UNIT (LENGTH_MEASURE( 1.000000000000000082E-05 ), #137, 'distance_accuracy_value', 'NONE');
#291 = EDGE_CURVE ( 'NONE', #254, #261, #222, .T. ) ;
#292 = CARTESIAN_POINT ( 'NONE',  ( -5.517094017094013481, 7.347880794884119736E-16, -6.000000000000000000 ) ) ;
#293 = CYLINDRICAL_SURFACE ( 'NONE', #50, 13.00000000000000000 ) ;
#294 = CARTESIAN_POINT ( 'NONE',  ( 17.98290598290598652, 0.0000000000000000000, 0.0000000000000000000 ) ) ;
#295 = EDGE_LOOP ( 'NONE', ( #86, #186 ) ) ;
#296 = FACE_OUTER_BOUND ( 'NONE', #284, .T. ) ;
#297 = CONICAL_SURFACE ( 'NONE', #133, 6.499999999999998224, 0.7853981633974457255 ) ;
#298 = ORIENTED_EDGE ( 'NONE', *, *, #283, .F. ) ;
#299 = CARTESIAN_POINT ( 'NONE',  ( 0.0000000000000000000, 0.0000000000000000000, 0.0000000000000000000 ) ) ;
#300 = ORIENTED_EDGE ( 'NONE', *, *, #44, .T. ) ;
#301 =( GEOMETRIC_REPRESENTATION_CONTEXT ( 3 ) GLOBAL_UNCERTAINTY_ASSIGNED_CONTEXT ( ( #290 ) ) GLOBAL_UNIT_ASSIGNED_CONTEXT ( ( #137, #232, #280 ) ) REPRESENTATION_CONTEXT ( 'NONE', 'WORKASPACE' ) );
#302 = SURFACE_STYLE_USAGE ( .BOTH. , #69 ) ;
#303 = AXIS2_PLACEMENT_3D ( 'NONE', #26, #144, #197 ) ;
#304 = DIRECTION ( 'NONE',  ( 0.0000000000000000000, 0.0000000000000000000, 1.000000000000000000 ) ) ;
#305 = CARTESIAN_POINT ( 'NONE',  ( -5.517094017094013481, 0.0000000000000000000, 0.0000000000000000000 ) ) ;
#306 = SURFACE_STYLE_FILL_AREA ( #259 ) ;
#307 = ADVANCED_FACE ( 'NONE', ( #245 ), #225, .F. ) ;
#308 = DIRECTION ( 'NONE',  ( -1.000000000000000000, 0.0000000000000000000, 0.0000000000000000000 ) ) ;
#309 = CLOSED_SHELL ( 'NONE', ( #31, #227, #71, #228, #164, #148, #79, #307, #187, #55 ) ) ;
#310 = FACE_OUTER_BOUND ( 'NONE', #81, .T. ) ;
#311 = FACE_BOUND ( 'NONE', #281, .T. ) ;
#312 = FACE_OUTER_BOUND ( 'NONE', #151, .T. ) ;
#313 = UNCERTAINTY_MEASURE_WITH_UNIT (LENGTH_MEASURE( 1.000000000000000082E-05 ), #126, 'distance_accuracy_value', 'NONE');
#314 = FACE_OUTER_BOUND ( 'NONE', #189, .T. ) ;
ENDSEC;
END-ISO-10303-21;
