ISO-10303-21;
HEADER;
FILE_DESCRIPTION (( 'STEP AP214' ),
    '1' );
FILE_NAME ('BRM 16x2.step',
    '2020-09-08T10:22:37',
    ( '' ),
    ( '' ),
    'SwSTEP 2.0',
    'SolidWorks 2020',
    '' );
FILE_SCHEMA (( 'AUTOMOTIVE_DESIGN' ));
ENDSEC;

DATA;
#1 =( NAMED_UNIT ( * ) PLANE_ANGLE_UNIT ( ) SI_UNIT ( $, .RADIAN. ) );
#2 = DIRECTION ( 'NONE',  ( -1.000000000000000000, -0.0000000000000000000, -0.0000000000000000000 ) ) ;
#3 = DIRECTION ( 'NONE',  ( -0.7071067811865474617, 8.659560562354932858E-17, -0.7071067811865474617 ) ) ;
#4 = CIRCLE ( 'NONE', #204, 18.00000000000000000 ) ;
#5 = ORIENTED_EDGE ( 'NONE', *, *, #274, .T. ) ;
#6 = AXIS2_PLACEMENT_3D ( 'NONE', #283, #314, #265 ) ;
#7 = EDGE_LOOP ( 'NONE', ( #182, #272 ) ) ;
#8 = DIRECTION ( 'NONE',  ( 1.000000000000000000, 0.0000000000000000000, 0.0000000000000000000 ) ) ;
#9 = CARTESIAN_POINT ( 'NONE',  ( 25.98290598290597941, 0.0000000000000000000, -8.500000000000007105 ) ) ;
#10 = ORIENTED_EDGE ( 'NONE', *, *, #230, .F. ) ;
#11 = COLOUR_RGB ( '',0.7921568627450980005, 0.8196078431372548767, 0.9333333333333333481 ) ;
#12 = APPLICATION_CONTEXT ( 'automotive_design' ) ;
#13 =( LENGTH_UNIT ( ) NAMED_UNIT ( * ) SI_UNIT ( .MILLI., .METRE. ) );
#14 = CARTESIAN_POINT ( 'NONE',  ( 25.48290598290597941, 0.0000000000000000000, 0.0000000000000000000 ) ) ;
#15 = ADVANCED_FACE ( 'NONE', ( #171, #158 ), #29, .F. ) ;
#16 = AXIS2_PLACEMENT_3D ( 'NONE', #308, #91, #262 ) ;
#17 = APPLICATION_PROTOCOL_DEFINITION ( 'draft international standard', 'automotive_design', 1998, #310 ) ;
#18 = CARTESIAN_POINT ( 'NONE',  ( -46.22222222222222143, 0.0000000000000000000, 0.0000000000000000000 ) ) ;
#19 = EDGE_CURVE ( 'NONE', #102, #104, #246, .T. ) ;
#20 = FACE_OUTER_BOUND ( 'NONE', #185, .T. ) ;
#21 = PRODUCT_DEFINITION_FORMATION_WITH_SPECIFIED_SOURCE ( 'ANY', '', #145, .NOT_KNOWN. ) ;
#22 = CARTESIAN_POINT ( 'NONE',  ( -46.22222222222222143, 9.797174393178825657E-16, -8.000000000000000000 ) ) ;
#23 = PRODUCT_RELATED_PRODUCT_CATEGORY ( 'part', '', ( #145 ) ) ;
#24 = PRESENTATION_STYLE_ASSIGNMENT (( #195 ) ) ;
#25 = LINE ( 'NONE', #202, #116 ) ;
#26 = VERTEX_POINT ( 'NONE', #225 ) ;
#27 = ORIENTED_EDGE ( 'NONE', *, *, #74, .T. ) ;
#28 = ADVANCED_FACE ( 'NONE', ( #196 ), #178, .F. ) ;
#29 = PLANE ( 'NONE',  #70 ) ;
#30 = EDGE_LOOP ( 'NONE', ( #150, #80 ) ) ;
#31 = CARTESIAN_POINT ( 'NONE',  ( -6.017094017094014369, 0.0000000000000000000, 0.0000000000000000000 ) ) ;
#32 = CIRCLE ( 'NONE', #110, 18.00000000000000000 ) ;
#33 = ORIENTED_EDGE ( 'NONE', *, *, #132, .T. ) ;
#34 = EDGE_CURVE ( 'NONE', #104, #26, #222, .T. ) ;
#35 = DIRECTION ( 'NONE',  ( 0.0000000000000000000, 0.0000000000000000000, 1.000000000000000000 ) ) ;
#36 = ORIENTED_EDGE ( 'NONE', *, *, #34, .T. ) ;
#37 = CARTESIAN_POINT ( 'NONE',  ( 25.98290598290597941, 0.0000000000000000000, 18.00000000000000000 ) ) ;
#38 = AXIS2_PLACEMENT_3D ( 'NONE', #31, #8, #85 ) ;
#39 = AXIS2_PLACEMENT_3D ( 'NONE', #219, #73, #118 ) ;
#40 = EDGE_CURVE ( 'NONE', #155, #275, #50, .T. ) ;
#41 =( NAMED_UNIT ( * ) SI_UNIT ( $, .STERADIAN. ) SOLID_ANGLE_UNIT ( ) );
#42 = DIRECTION ( 'NONE',  ( 0.0000000000000000000, 0.0000000000000000000, -1.000000000000000000 ) ) ;
#43 = UNCERTAINTY_MEASURE_WITH_UNIT (LENGTH_MEASURE( 1.000000000000000082E-05 ), #289, 'distance_accuracy_value', 'NONE');
#44 = FACE_OUTER_BOUND ( 'NONE', #255, .T. ) ;
#45 = CARTESIAN_POINT ( 'NONE',  ( 25.98290598290597941, 0.0000000000000000000, 0.0000000000000000000 ) ) ;
#46 = DIRECTION ( 'NONE',  ( -1.000000000000000000, -0.0000000000000000000, -0.0000000000000000000 ) ) ;
#47 =( GEOMETRIC_REPRESENTATION_CONTEXT ( 3 ) GLOBAL_UNCERTAINTY_ASSIGNED_CONTEXT ( ( #267 ) ) GLOBAL_UNIT_ASSIGNED_CONTEXT ( ( #13, #306, #57 ) ) REPRESENTATION_CONTEXT ( 'NONE', 'WORKASPACE' ) );
#48 = CARTESIAN_POINT ( 'NONE',  ( 25.98290598290598652, 18.00000000000000000, 0.0000000000000000000 ) ) ;
#49 = EDGE_CURVE ( 'NONE', #86, #291, #25, .T. ) ;
#50 = LINE ( 'NONE', #146, #120 ) ;
#51 = EDGE_LOOP ( 'NONE', ( #151, #200, #177, #124 ) ) ;
#52 = VECTOR ( 'NONE', #187, 1000.000000000000114 ) ;
#53 = EDGE_CURVE ( 'NONE', #102, #147, #312, .T. ) ;
#54 = LINE ( 'NONE', #184, #52 ) ;
#55 = ORIENTED_EDGE ( 'NONE', *, *, #113, .F. ) ;
#56 = ORIENTED_EDGE ( 'NONE', *, *, #224, .F. ) ;
#57 =( NAMED_UNIT ( * ) SI_UNIT ( $, .STERADIAN. ) SOLID_ANGLE_UNIT ( ) );
#58 = ORIENTED_EDGE ( 'NONE', *, *, #62, .F. ) ;
#59 = CARTESIAN_POINT ( 'NONE',  ( -5.517094017094007263, 0.0000000000000000000, 0.0000000000000000000 ) ) ;
#60 = AXIS2_PLACEMENT_3D ( 'NONE', #14, #136, #35 ) ;
#61 = VERTEX_POINT ( 'NONE', #270 ) ;
#62 = EDGE_CURVE ( 'NONE', #61, #251, #54, .T. ) ;
#63 = DIRECTION ( 'NONE',  ( 0.0000000000000000000, 0.0000000000000000000, 1.000000000000000000 ) ) ;
#64 = ORIENTED_EDGE ( 'NONE', *, *, #127, .F. ) ;
#65 = CARTESIAN_POINT ( 'NONE',  ( 25.98290598290597941, 0.0000000000000000000, 0.0000000000000000000 ) ) ;
#66 = DIRECTION ( 'NONE',  ( -1.000000000000000000, -0.0000000000000000000, -0.0000000000000000000 ) ) ;
#67 = VECTOR ( 'NONE', #66, 1000.000000000000000 ) ;
#68 = CARTESIAN_POINT ( 'NONE',  ( -6.017094017094014369, 0.0000000000000000000, 18.00000000000000000 ) ) ;
#69 = DIRECTION ( 'NONE',  ( 0.0000000000000000000, 0.0000000000000000000, -1.000000000000000000 ) ) ;
#70 = AXIS2_PLACEMENT_3D ( 'NONE', #48, #174, #244 ) ;
#71 = CIRCLE ( 'NONE', #149, 18.00000000000000000 ) ;
#72 = DIRECTION ( 'NONE',  ( 0.0000000000000000000, 0.0000000000000000000, 1.000000000000000000 ) ) ;
#73 = DIRECTION ( 'NONE',  ( 0.0000000000000000000, 0.0000000000000000000, 1.000000000000000000 ) ) ;
#74 = EDGE_CURVE ( 'NONE', #147, #102, #93, .T. ) ;
#75 = APPLICATION_PROTOCOL_DEFINITION ( 'draft international standard', 'automotive_design', 1998, #12 ) ;
#76 = PRODUCT_CONTEXT ( 'NONE', #310, 'mechanical' ) ;
#77 = ADVANCED_FACE ( 'NONE', ( #231 ), #250, .T. ) ;
#78 = CIRCLE ( 'NONE', #260, 18.00000000000000000 ) ;
#79 = CARTESIAN_POINT ( 'NONE',  ( -5.517094017094007263, 0.0000000000000000000, 0.0000000000000000000 ) ) ;
#80 = ORIENTED_EDGE ( 'NONE', *, *, #192, .T. ) ;
#81 = DIRECTION ( 'NONE',  ( -1.000000000000000000, -0.0000000000000000000, -0.0000000000000000000 ) ) ;
#82 = ORIENTED_EDGE ( 'NONE', *, *, #168, .F. ) ;
#83 = DIRECTION ( 'NONE',  ( 0.7071067811865426878, 0.0000000000000000000, -0.7071067811865524577 ) ) ;
#84 = ORIENTED_EDGE ( 'NONE', *, *, #106, .F. ) ;
#85 = DIRECTION ( 'NONE',  ( 0.0000000000000000000, 0.0000000000000000000, -1.000000000000000000 ) ) ;
#86 = VERTEX_POINT ( 'NONE', #37 ) ;
#87 = DIRECTION ( 'NONE',  ( 1.000000000000000000, -0.0000000000000000000, -0.0000000000000000000 ) ) ;
#88 = CARTESIAN_POINT ( 'NONE',  ( -5.517094017094007263, 0.0000000000000000000, 0.0000000000000000000 ) ) ;
#89 = CIRCLE ( 'NONE', #268, 8.000000000000000000 ) ;
#90 = ADVANCED_FACE ( 'NONE', ( #237 ), #205, .F. ) ;
#91 = DIRECTION ( 'NONE',  ( 1.000000000000000000, 0.0000000000000000000, 0.0000000000000000000 ) ) ;
#92 = DIRECTION ( 'NONE',  ( 0.0000000000000000000, 0.0000000000000000000, 1.000000000000000000 ) ) ;
#93 = CIRCLE ( 'NONE', #60, 8.000000000000000000 ) ;
#94 = CYLINDRICAL_SURFACE ( 'NONE', #313, 18.00000000000000000 ) ;
#95 =( NAMED_UNIT ( * ) SI_UNIT ( $, .STERADIAN. ) SOLID_ANGLE_UNIT ( ) );
#96 = EDGE_LOOP ( 'NONE', ( #278, #226, #209, #84 ) ) ;
#97 = ORIENTED_EDGE ( 'NONE', *, *, #100, .F. ) ;
#98 = PRODUCT_DEFINITION_SHAPE ( 'NONE', 'NONE',  #183 ) ;
#99 = VERTEX_POINT ( 'NONE', #261 ) ;
#100 = EDGE_CURVE ( 'NONE', #251, #26, #133, .T. ) ;
#101 = CARTESIAN_POINT ( 'NONE',  ( -6.017094017094014369, 0.0000000000000000000, 0.0000000000000000000 ) ) ;
#102 = VERTEX_POINT ( 'NONE', #208 ) ;
#103 = LINE ( 'NONE', #277, #67 ) ;
#104 = VERTEX_POINT ( 'NONE', #254 ) ;
#105 = FACE_OUTER_BOUND ( 'NONE', #152, .T. ) ;
#106 = EDGE_CURVE ( 'NONE', #275, #291, #78, .T. ) ;
#107 = DIRECTION ( 'NONE',  ( 0.0000000000000000000, 0.0000000000000000000, 1.000000000000000000 ) ) ;
#108 = PLANE ( 'NONE',  #166 ) ;
#109 = CARTESIAN_POINT ( 'NONE',  ( 25.98290598290598652, 1.040949779275251915E-15, 8.500000000000014211 ) ) ;
#110 = AXIS2_PLACEMENT_3D ( 'NONE', #65, #235, #213 ) ;
#111 = AXIS2_PLACEMENT_3D ( 'NONE', #88, #169, #72 ) ;
#112 = FILL_AREA_STYLE_COLOUR ( '', #11 ) ;
#113 = EDGE_CURVE ( 'NONE', #102, #99, #129, .T. ) ;
#114 = DIRECTION ( 'NONE',  ( -1.000000000000000000, 0.0000000000000000000, 0.0000000000000000000 ) ) ;
#115 = FACE_OUTER_BOUND ( 'NONE', #203, .T. ) ;
#116 = VECTOR ( 'NONE', #293, 1000.000000000000000 ) ;
#117 = SURFACE_STYLE_FILL_AREA ( #220 ) ;
#118 = DIRECTION ( 'NONE',  ( 1.000000000000000000, 0.0000000000000000000, 0.0000000000000000000 ) ) ;
#119 = CARTESIAN_POINT ( 'NONE',  ( 25.48290598290597941, 0.0000000000000000000, 0.0000000000000000000 ) ) ;
#120 = VECTOR ( 'NONE', #245, 1000.000000000000000 ) ;
#121 = AXIS2_PLACEMENT_3D ( 'NONE', #79, #123, #221 ) ;
#122 = CIRCLE ( 'NONE', #6, 8.500000000000014211 ) ;
#123 = DIRECTION ( 'NONE',  ( -1.000000000000000000, 0.0000000000000000000, 0.0000000000000000000 ) ) ;
#124 = ORIENTED_EDGE ( 'NONE', *, *, #192, .F. ) ;
#125 = ORIENTED_EDGE ( 'NONE', *, *, #274, .F. ) ;
#126 = EDGE_LOOP ( 'NONE', ( #5, #229 ) ) ;
#127 = EDGE_CURVE ( 'NONE', #291, #275, #4, .T. ) ;
#128 = SURFACE_STYLE_USAGE ( .BOTH. , #258 ) ;
#129 = LINE ( 'NONE', #9, #295 ) ;
#130 = ORIENTED_EDGE ( 'NONE', *, *, #53, .T. ) ;
#131 = CARTESIAN_POINT ( 'NONE',  ( 25.48290598290597941, 0.0000000000000000000, 8.000000000000000000 ) ) ;
#132 = EDGE_CURVE ( 'NONE', #147, #61, #103, .T. ) ;
#133 = CIRCLE ( 'NONE', #38, 8.500000000000007105 ) ;
#134 = CARTESIAN_POINT ( 'NONE',  ( -46.22222222222222143, 0.0000000000000000000, 0.0000000000000000000 ) ) ;
#135 =( GEOMETRIC_REPRESENTATION_CONTEXT ( 3 ) GLOBAL_UNCERTAINTY_ASSIGNED_CONTEXT ( ( #43 ) ) GLOBAL_UNIT_ASSIGNED_CONTEXT ( ( #289, #1, #95 ) ) REPRESENTATION_CONTEXT ( 'NONE', 'WORKASPACE' ) );
#136 = DIRECTION ( 'NONE',  ( 1.000000000000000000, -0.0000000000000000000, -0.0000000000000000000 ) ) ;
#137 = MANIFOLD_SOLID_BREP ( 'Chamfer1', #198 ) ;
#138 = EDGE_CURVE ( 'NONE', #61, #104, #89, .T. ) ;
#139 = CARTESIAN_POINT ( 'NONE',  ( -46.22222222222222143, 0.0000000000000000000, 0.0000000000000000000 ) ) ;
#140 = MECHANICAL_DESIGN_GEOMETRIC_PRESENTATION_REPRESENTATION (  '', ( #242 ), #47 ) ;
#141 = CONICAL_SURFACE ( 'NONE', #248, 8.500000000000007105, 0.7853981633974552734 ) ;
#142 = CYLINDRICAL_SURFACE ( 'NONE', #282, 8.000000000000000000 ) ;
#143 = FACE_BOUND ( 'NONE', #30, .T. ) ;
#144 = DIRECTION ( 'NONE',  ( -1.000000000000000000, -0.0000000000000000000, -0.0000000000000000000 ) ) ;
#145 = PRODUCT ( 'BRM 16x2', 'BRM 16x2', '', ( #76 ) ) ;
#146 = CARTESIAN_POINT ( 'NONE',  ( -46.22222222222222143, 2.204364238465235428E-15, -18.00000000000000000 ) ) ;
#147 = VERTEX_POINT ( 'NONE', #131 ) ;
#148 = VECTOR ( 'NONE', #3, 1000.000000000000114 ) ;
#149 = AXIS2_PLACEMENT_3D ( 'NONE', #45, #238, #288 ) ;
#150 = ORIENTED_EDGE ( 'NONE', *, *, #100, .T. ) ;
#151 = ORIENTED_EDGE ( 'NONE', *, *, #34, .F. ) ;
#152 = EDGE_LOOP ( 'NONE', ( #56, #227, #249, #223 ) ) ;
#153 = CIRCLE ( 'NONE', #16, 8.500000000000007105 ) ;
#154 = DIRECTION ( 'NONE',  ( 0.0000000000000000000, 0.0000000000000000000, -1.000000000000000000 ) ) ;
#155 = VERTEX_POINT ( 'NONE', #233 ) ;
#156 = CARTESIAN_POINT ( 'NONE',  ( -46.22222222222222143, 0.0000000000000000000, 0.0000000000000000000 ) ) ;
#157 = EDGE_LOOP ( 'NONE', ( #27, #273, #206, #294 ) ) ;
#158 = FACE_OUTER_BOUND ( 'NONE', #247, .T. ) ;
#159 = FILL_AREA_STYLE_COLOUR ( '', #276 ) ;
#160 = AXIS2_PLACEMENT_3D ( 'NONE', #134, #228, #298 ) ;
#161 = PRESENTATION_STYLE_ASSIGNMENT (( #128 ) ) ;
#162 = CARTESIAN_POINT ( 'NONE',  ( 25.98290598290597941, 0.0000000000000000000, 0.0000000000000000000 ) ) ;
#163 = ADVANCED_FACE ( 'NONE', ( #105 ), #215, .F. ) ;
#164 = FACE_OUTER_BOUND ( 'NONE', #7, .T. ) ;
#165 = DIRECTION ( 'NONE',  ( 1.000000000000000000, -0.0000000000000000000, -0.0000000000000000000 ) ) ;
#166 = AXIS2_PLACEMENT_3D ( 'NONE', #214, #190, #69 ) ;
#167 =( GEOMETRIC_REPRESENTATION_CONTEXT ( 3 ) GLOBAL_UNCERTAINTY_ASSIGNED_CONTEXT ( ( #173 ) ) GLOBAL_UNIT_ASSIGNED_CONTEXT ( ( #309, #216, #41 ) ) REPRESENTATION_CONTEXT ( 'NONE', 'WORKASPACE' ) );
#168 = EDGE_CURVE ( 'NONE', #155, #86, #32, .T. ) ;
#169 = DIRECTION ( 'NONE',  ( -1.000000000000000000, 0.0000000000000000000, 0.0000000000000000000 ) ) ;
#170 = AXIS2_PLACEMENT_3D ( 'NONE', #218, #46, #92 ) ;
#171 = FACE_BOUND ( 'NONE', #126, .T. ) ;
#172 = SHAPE_DEFINITION_REPRESENTATION ( #98, #186 ) ;
#173 = UNCERTAINTY_MEASURE_WITH_UNIT (LENGTH_MEASURE( 1.000000000000000082E-05 ), #309, 'distance_accuracy_value', 'NONE');
#174 = DIRECTION ( 'NONE',  ( -1.000000000000000000, 0.0000000000000000000, -0.0000000000000000000 ) ) ;
#175 = ORIENTED_EDGE ( 'NONE', *, *, #138, .T. ) ;
#176 = DIRECTION ( 'NONE',  ( 1.000000000000000000, -0.0000000000000000000, -0.0000000000000000000 ) ) ;
#177 = ORIENTED_EDGE ( 'NONE', *, *, #62, .T. ) ;
#178 = CONICAL_SURFACE ( 'NONE', #121, 8.000000000000000000, 0.7853981633974482790 ) ;
#179 = CIRCLE ( 'NONE', #297, 8.000000000000000000 ) ;
#180 = PRODUCT_DEFINITION_CONTEXT ( 'detailed design', #12, 'design' ) ;
#181 = FILL_AREA_STYLE ('',( #159 ) ) ;
#182 = ORIENTED_EDGE ( 'NONE', *, *, #127, .T. ) ;
#183 = PRODUCT_DEFINITION ( 'UNKNOWN', '', #21, #180 ) ;
#184 = CARTESIAN_POINT ( 'NONE',  ( -5.517094017094007263, 0.0000000000000000000, 8.000000000000000000 ) ) ;
#185 = EDGE_LOOP ( 'NONE', ( #211, #36, #97, #58 ) ) ;
#186 = ADVANCED_BREP_SHAPE_REPRESENTATION ( 'BRM 16x2', ( #137, #39 ), #167 ) ;
#187 = DIRECTION ( 'NONE',  ( -0.7071067811865474617, 0.0000000000000000000, 0.7071067811865474617 ) ) ;
#188 = DIRECTION ( 'NONE',  ( 0.0000000000000000000, 0.0000000000000000000, -1.000000000000000000 ) ) ;
#189 = CONICAL_SURFACE ( 'NONE', #111, 8.000000000000000000, 0.7853981633974482790 ) ;
#190 = DIRECTION ( 'NONE',  ( 1.000000000000000000, 0.0000000000000000000, 0.0000000000000000000 ) ) ;
#191 = FACE_OUTER_BOUND ( 'NONE', #96, .T. ) ;
#192 = EDGE_CURVE ( 'NONE', #26, #251, #153, .T. ) ;
#193 = PRESENTATION_LAYER_ASSIGNMENT (  '', '', ( #234 ) ) ;
#194 = DIRECTION ( 'NONE',  ( 0.0000000000000000000, 0.0000000000000000000, 1.000000000000000000 ) ) ;
#195 = SURFACE_STYLE_USAGE ( .BOTH. , #199 ) ;
#196 = FACE_OUTER_BOUND ( 'NONE', #51, .T. ) ;
#197 = ADVANCED_FACE ( 'NONE', ( #191 ), #94, .T. ) ;
#198 = CLOSED_SHELL ( 'NONE', ( #259, #253, #90, #77, #236, #197, #15, #287, #28, #163 ) ) ;
#199 = SURFACE_SIDE_STYLE ('',( #117 ) ) ;
#200 = ORIENTED_EDGE ( 'NONE', *, *, #138, .F. ) ;
#201 = EDGE_CURVE ( 'NONE', #232, #99, #122, .T. ) ;
#202 = CARTESIAN_POINT ( 'NONE',  ( -46.22222222222222143, 0.0000000000000000000, 18.00000000000000000 ) ) ;
#203 = EDGE_LOOP ( 'NONE', ( #269, #207, #125, #55 ) ) ;
#204 = AXIS2_PLACEMENT_3D ( 'NONE', #210, #81, #63 ) ;
#205 = CYLINDRICAL_SURFACE ( 'NONE', #160, 8.000000000000000000 ) ;
#206 = ORIENTED_EDGE ( 'NONE', *, *, #311, .T. ) ;
#207 = ORIENTED_EDGE ( 'NONE', *, *, #224, .T. ) ;
#208 = CARTESIAN_POINT ( 'NONE',  ( 25.48290598290597941, 9.797174393178825657E-16, -8.000000000000000000 ) ) ;
#209 = ORIENTED_EDGE ( 'NONE', *, *, #49, .T. ) ;
#210 = CARTESIAN_POINT ( 'NONE',  ( -6.017094017094014369, 0.0000000000000000000, 0.0000000000000000000 ) ) ;
#211 = ORIENTED_EDGE ( 'NONE', *, *, #311, .F. ) ;
#212 = CARTESIAN_POINT ( 'NONE',  ( 25.98290598290597941, 0.0000000000000000000, 0.0000000000000000000 ) ) ;
#213 = DIRECTION ( 'NONE',  ( 0.0000000000000000000, 0.0000000000000000000, 1.000000000000000000 ) ) ;
#214 = CARTESIAN_POINT ( 'NONE',  ( -6.017094017094014369, 8.000000000000000000, 0.0000000000000000000 ) ) ;
#215 = CONICAL_SURFACE ( 'NONE', #252, 8.500000000000007105, 0.7853981633974552734 ) ;
#216 =( NAMED_UNIT ( * ) PLANE_ANGLE_UNIT ( ) SI_UNIT ( $, .RADIAN. ) );
#217 = VECTOR ( 'NONE', #284, 1000.000000000000000 ) ;
#218 = CARTESIAN_POINT ( 'NONE',  ( 25.98290598290598652, 0.0000000000000000000, 0.0000000000000000000 ) ) ;
#219 = CARTESIAN_POINT ( 'NONE',  ( 0.0000000000000000000, 0.0000000000000000000, 0.0000000000000000000 ) ) ;
#220 = FILL_AREA_STYLE ('',( #112 ) ) ;
#221 = DIRECTION ( 'NONE',  ( 0.0000000000000000000, 0.0000000000000000000, 1.000000000000000000 ) ) ;
#222 = LINE ( 'NONE', #290, #148 ) ;
#223 = ORIENTED_EDGE ( 'NONE', *, *, #201, .F. ) ;
#224 = EDGE_CURVE ( 'NONE', #147, #232, #241, .T. ) ;
#225 = CARTESIAN_POINT ( 'NONE',  ( -6.017094017094014369, 1.040949779275250929E-15, -8.500000000000007105 ) ) ;
#226 = ORIENTED_EDGE ( 'NONE', *, *, #168, .T. ) ;
#227 = ORIENTED_EDGE ( 'NONE', *, *, #53, .F. ) ;
#228 = DIRECTION ( 'NONE',  ( -1.000000000000000000, -0.0000000000000000000, -0.0000000000000000000 ) ) ;
#229 = ORIENTED_EDGE ( 'NONE', *, *, #201, .T. ) ;
#230 = EDGE_CURVE ( 'NONE', #86, #155, #71, .T. ) ;
#231 = FACE_OUTER_BOUND ( 'NONE', #301, .T. ) ;
#232 = VERTEX_POINT ( 'NONE', #109 ) ;
#233 = CARTESIAN_POINT ( 'NONE',  ( 25.98290598290597941, 2.204364238465235428E-15, -18.00000000000000000 ) ) ;
#234 = STYLED_ITEM ( 'NONE', ( #24 ), #186 ) ;
#235 = DIRECTION ( 'NONE',  ( -1.000000000000000000, -0.0000000000000000000, -0.0000000000000000000 ) ) ;
#236 = ADVANCED_FACE ( 'NONE', ( #143, #164 ), #108, .F. ) ;
#237 = FACE_OUTER_BOUND ( 'NONE', #157, .T. ) ;
#238 = DIRECTION ( 'NONE',  ( -1.000000000000000000, -0.0000000000000000000, -0.0000000000000000000 ) ) ;
#239 = DIRECTION ( 'NONE',  ( -1.000000000000000000, -0.0000000000000000000, -0.0000000000000000000 ) ) ;
#240 = CARTESIAN_POINT ( 'NONE',  ( -6.017094017094014369, 0.0000000000000000000, 8.500000000000007105 ) ) ;
#241 = LINE ( 'NONE', #266, #217 ) ;
#242 = STYLED_ITEM ( 'NONE', ( #161 ), #137 ) ;
#243 = MECHANICAL_DESIGN_GEOMETRIC_PRESENTATION_REPRESENTATION (  '', ( #234 ), #135 ) ;
#244 = DIRECTION ( 'NONE',  ( -0.0000000000000000000, 0.0000000000000000000, 1.000000000000000000 ) ) ;
#245 = DIRECTION ( 'NONE',  ( -1.000000000000000000, -0.0000000000000000000, -0.0000000000000000000 ) ) ;
#246 = LINE ( 'NONE', #22, #285 ) ;
#247 = EDGE_LOOP ( 'NONE', ( #10, #82 ) ) ;
#248 = AXIS2_PLACEMENT_3D ( 'NONE', #162, #165, #42 ) ;
#249 = ORIENTED_EDGE ( 'NONE', *, *, #113, .T. ) ;
#250 = CYLINDRICAL_SURFACE ( 'NONE', #271, 18.00000000000000000 ) ;
#251 = VERTEX_POINT ( 'NONE', #240 ) ;
#252 = AXIS2_PLACEMENT_3D ( 'NONE', #212, #87, #279 ) ;
#253 = ADVANCED_FACE ( 'NONE', ( #20 ), #189, .F. ) ;
#254 = CARTESIAN_POINT ( 'NONE',  ( -5.517094017094007263, 9.797174393178825657E-16, -8.000000000000000000 ) ) ;
#255 = EDGE_LOOP ( 'NONE', ( #299, #130, #33, #175 ) ) ;
#256 = DIRECTION ( 'NONE',  ( -1.000000000000000000, 0.0000000000000000000, 0.0000000000000000000 ) ) ;
#257 = ORIENTED_EDGE ( 'NONE', *, *, #230, .T. ) ;
#258 = SURFACE_SIDE_STYLE ('',( #302 ) ) ;
#259 = ADVANCED_FACE ( 'NONE', ( #115 ), #141, .F. ) ;
#260 = AXIS2_PLACEMENT_3D ( 'NONE', #101, #300, #107 ) ;
#261 = CARTESIAN_POINT ( 'NONE',  ( 25.98290598290598652, 0.0000000000000000000, -8.500000000000014211 ) ) ;
#262 = DIRECTION ( 'NONE',  ( 0.0000000000000000000, 0.0000000000000000000, -1.000000000000000000 ) ) ;
#263 = AXIS2_PLACEMENT_3D ( 'NONE', #119, #176, #292 ) ;
#264 = CARTESIAN_POINT ( 'NONE',  ( -6.017094017094014369, 2.204364238465235428E-15, -18.00000000000000000 ) ) ;
#265 = DIRECTION ( 'NONE',  ( 0.0000000000000000000, 0.0000000000000000000, 1.000000000000000000 ) ) ;
#266 = CARTESIAN_POINT ( 'NONE',  ( 25.98290598290597941, 1.040949779275251126E-15, 8.500000000000007105 ) ) ;
#267 = UNCERTAINTY_MEASURE_WITH_UNIT (LENGTH_MEASURE( 1.000000000000000082E-05 ), #13, 'distance_accuracy_value', 'NONE');
#268 = AXIS2_PLACEMENT_3D ( 'NONE', #59, #256, #154 ) ;
#269 = ORIENTED_EDGE ( 'NONE', *, *, #74, .F. ) ;
#270 = CARTESIAN_POINT ( 'NONE',  ( -5.517094017094007263, 0.0000000000000000000, 8.000000000000000000 ) ) ;
#271 = AXIS2_PLACEMENT_3D ( 'NONE', #156, #280, #305 ) ;
#272 = ORIENTED_EDGE ( 'NONE', *, *, #106, .T. ) ;
#273 = ORIENTED_EDGE ( 'NONE', *, *, #19, .T. ) ;
#274 = EDGE_CURVE ( 'NONE', #99, #232, #304, .T. ) ;
#275 = VERTEX_POINT ( 'NONE', #264 ) ;
#276 = COLOUR_RGB ( '',0.7921568627450980005, 0.8196078431372548767, 0.9333333333333333481 ) ;
#277 = CARTESIAN_POINT ( 'NONE',  ( -46.22222222222222143, 0.0000000000000000000, 8.000000000000000000 ) ) ;
#278 = ORIENTED_EDGE ( 'NONE', *, *, #40, .F. ) ;
#279 = DIRECTION ( 'NONE',  ( 0.0000000000000000000, 0.0000000000000000000, -1.000000000000000000 ) ) ;
#280 = DIRECTION ( 'NONE',  ( -1.000000000000000000, -0.0000000000000000000, -0.0000000000000000000 ) ) ;
#281 = PRESENTATION_LAYER_ASSIGNMENT (  '', '', ( #242 ) ) ;
#282 = AXIS2_PLACEMENT_3D ( 'NONE', #18, #144, #286 ) ;
#283 = CARTESIAN_POINT ( 'NONE',  ( 25.98290598290598652, 0.0000000000000000000, 0.0000000000000000000 ) ) ;
#284 = DIRECTION ( 'NONE',  ( 0.7071067811865426878, 8.659560562354994488E-17, 0.7071067811865524577 ) ) ;
#285 = VECTOR ( 'NONE', #2, 1000.000000000000000 ) ;
#286 = DIRECTION ( 'NONE',  ( 0.0000000000000000000, 0.0000000000000000000, 1.000000000000000000 ) ) ;
#287 = ADVANCED_FACE ( 'NONE', ( #44 ), #142, .F. ) ;
#288 = DIRECTION ( 'NONE',  ( 0.0000000000000000000, 0.0000000000000000000, 1.000000000000000000 ) ) ;
#289 =( LENGTH_UNIT ( ) NAMED_UNIT ( * ) SI_UNIT ( .MILLI., .METRE. ) );
#290 = CARTESIAN_POINT ( 'NONE',  ( -5.517094017094007263, 9.797174393178825657E-16, -8.000000000000000000 ) ) ;
#291 = VERTEX_POINT ( 'NONE', #68 ) ;
#292 = DIRECTION ( 'NONE',  ( 0.0000000000000000000, 0.0000000000000000000, 1.000000000000000000 ) ) ;
#293 = DIRECTION ( 'NONE',  ( -1.000000000000000000, -0.0000000000000000000, -0.0000000000000000000 ) ) ;
#294 = ORIENTED_EDGE ( 'NONE', *, *, #132, .F. ) ;
#295 = VECTOR ( 'NONE', #83, 1000.000000000000000 ) ;
#296 = ORIENTED_EDGE ( 'NONE', *, *, #40, .T. ) ;
#297 = AXIS2_PLACEMENT_3D ( 'NONE', #307, #114, #188 ) ;
#298 = DIRECTION ( 'NONE',  ( 0.0000000000000000000, 0.0000000000000000000, 1.000000000000000000 ) ) ;
#299 = ORIENTED_EDGE ( 'NONE', *, *, #19, .F. ) ;
#300 = DIRECTION ( 'NONE',  ( -1.000000000000000000, -0.0000000000000000000, -0.0000000000000000000 ) ) ;
#301 = EDGE_LOOP ( 'NONE', ( #257, #296, #64, #303 ) ) ;
#302 = SURFACE_STYLE_FILL_AREA ( #181 ) ;
#303 = ORIENTED_EDGE ( 'NONE', *, *, #49, .F. ) ;
#304 = CIRCLE ( 'NONE', #170, 8.500000000000014211 ) ;
#305 = DIRECTION ( 'NONE',  ( 0.0000000000000000000, 0.0000000000000000000, 1.000000000000000000 ) ) ;
#306 =( NAMED_UNIT ( * ) PLANE_ANGLE_UNIT ( ) SI_UNIT ( $, .RADIAN. ) );
#307 = CARTESIAN_POINT ( 'NONE',  ( -5.517094017094007263, 0.0000000000000000000, 0.0000000000000000000 ) ) ;
#308 = CARTESIAN_POINT ( 'NONE',  ( -6.017094017094014369, 0.0000000000000000000, 0.0000000000000000000 ) ) ;
#309 =( LENGTH_UNIT ( ) NAMED_UNIT ( * ) SI_UNIT ( .MILLI., .METRE. ) );
#310 = APPLICATION_CONTEXT ( 'automotive_design' ) ;
#311 = EDGE_CURVE ( 'NONE', #104, #61, #179, .T. ) ;
#312 = CIRCLE ( 'NONE', #263, 8.000000000000000000 ) ;
#313 = AXIS2_PLACEMENT_3D ( 'NONE', #139, #239, #194 ) ;
#314 = DIRECTION ( 'NONE',  ( -1.000000000000000000, -0.0000000000000000000, -0.0000000000000000000 ) ) ;
ENDSEC;
END-ISO-10303-21;
