ISO-10303-21;
HEADER;
FILE_DESCRIPTION (( 'STEP AP214' ),
    '1' );
FILE_NAME ('BRM 40x14.step',
    '2020-09-08T10:23:50',
    ( '' ),
    ( '' ),
    'SwSTEP 2.0',
    'SolidWorks 2020',
    '' );
FILE_SCHEMA (( 'AUTOMOTIVE_DESIGN' ));
ENDSEC;

DATA;
#1 = CONICAL_SURFACE ( 'NONE', #284, 20.00000000000000000, 0.7853981633974447263 ) ;
#2 =( GEOMETRIC_REPRESENTATION_CONTEXT ( 3 ) GLOBAL_UNCERTAINTY_ASSIGNED_CONTEXT ( ( #160 ) ) GLOBAL_UNIT_ASSIGNED_CONTEXT ( ( #286, #219, #150 ) ) REPRESENTATION_CONTEXT ( 'NONE', 'WORKASPACE' ) );
#3 = PRESENTATION_STYLE_ASSIGNMENT (( #133 ) ) ;
#4 = ORIENTED_EDGE ( 'NONE', *, *, #41, .T. ) ;
#5 = PRODUCT_RELATED_PRODUCT_CATEGORY ( 'part', '', ( #304 ) ) ;
#6 = UNCERTAINTY_MEASURE_WITH_UNIT (LENGTH_MEASURE( 1.000000000000000082E-05 ), #29, 'distance_accuracy_value', 'NONE');
#7 = ORIENTED_EDGE ( 'NONE', *, *, #115, .F. ) ;
#8 = DIRECTION ( 'NONE',  ( -1.000000000000000000, -0.0000000000000000000, -0.0000000000000000000 ) ) ;
#9 = VERTEX_POINT ( 'NONE', #158 ) ;
#10 = MECHANICAL_DESIGN_GEOMETRIC_PRESENTATION_REPRESENTATION (  '', ( #233 ), #2 ) ;
#11 = EDGE_CURVE ( 'NONE', #299, #49, #246, .T. ) ;
#12 = ORIENTED_EDGE ( 'NONE', *, *, #109, .F. ) ;
#13 = ORIENTED_EDGE ( 'NONE', *, *, #109, .T. ) ;
#14 = ORIENTED_EDGE ( 'NONE', *, *, #11, .F. ) ;
#15 = VECTOR ( 'NONE', #237, 1000.000000000000000 ) ;
#16 = VECTOR ( 'NONE', #54, 1000.000000000000114 ) ;
#17 = DIRECTION ( 'NONE',  ( 1.000000000000000000, 0.0000000000000000000, 0.0000000000000000000 ) ) ;
#18 = CARTESIAN_POINT ( 'NONE',  ( -46.22222222222222143, 0.0000000000000000000, 0.0000000000000000000 ) ) ;
#19 = CARTESIAN_POINT ( 'NONE',  ( 73.48290598290599007, 0.0000000000000000000, 0.0000000000000000000 ) ) ;
#20 = DIRECTION ( 'NONE',  ( 0.0000000000000000000, 0.0000000000000000000, -1.000000000000000000 ) ) ;
#21 = DIRECTION ( 'NONE',  ( 0.0000000000000000000, 0.0000000000000000000, 1.000000000000000000 ) ) ;
#22 = SURFACE_STYLE_FILL_AREA ( #236 ) ;
#23 = CARTESIAN_POINT ( 'NONE',  ( -46.22222222222222143, 2.449293598294706513E-15, -20.00000000000000000 ) ) ;
#24 = ADVANCED_FACE ( 'NONE', ( #250, #205 ), #300, .F. ) ;
#25 = CARTESIAN_POINT ( 'NONE',  ( -46.22222222222222143, 0.0000000000000000000, 0.0000000000000000000 ) ) ;
#26 = APPLICATION_CONTEXT ( 'automotive_design' ) ;
#27 = ORIENTED_EDGE ( 'NONE', *, *, #291, .T. ) ;
#28 = CARTESIAN_POINT ( 'NONE',  ( -46.22222222222222143, 0.0000000000000000000, 0.0000000000000000000 ) ) ;
#29 =( LENGTH_UNIT ( ) NAMED_UNIT ( * ) SI_UNIT ( .MILLI., .METRE. ) );
#30 = DIRECTION ( 'NONE',  ( 0.0000000000000000000, 0.0000000000000000000, -1.000000000000000000 ) ) ;
#31 = EDGE_CURVE ( 'NONE', #96, #313, #227, .T. ) ;
#32 = EDGE_LOOP ( 'NONE', ( #114, #266, #7, #222 ) ) ;
#33 = VERTEX_POINT ( 'NONE', #36 ) ;
#34 = EDGE_CURVE ( 'NONE', #299, #206, #173, .T. ) ;
#35 = CARTESIAN_POINT ( 'NONE',  ( 0.0000000000000000000, 0.0000000000000000000, 0.0000000000000000000 ) ) ;
#36 = CARTESIAN_POINT ( 'NONE',  ( 73.98290598290599007, 2.510525938252072904E-15, 20.49999999999998934 ) ) ;
#37 = EDGE_LOOP ( 'NONE', ( #111, #4 ) ) ;
#38 = AXIS2_PLACEMENT_3D ( 'NONE', #25, #8, #269 ) ;
#39 = DIRECTION ( 'NONE',  ( -1.000000000000000000, -0.0000000000000000000, -0.0000000000000000000 ) ) ;
#40 = DIRECTION ( 'NONE',  ( -0.7071067811865500152, 8.659560562354904508E-17, -0.7071067811865451302 ) ) ;
#41 = EDGE_CURVE ( 'NONE', #78, #252, #217, .T. ) ;
#42 = DIRECTION ( 'NONE',  ( 0.7071067811865549002, 8.659560562354844111E-17, 0.7071067811865401342 ) ) ;
#43 = CONICAL_SURFACE ( 'NONE', #139, 20.49999999999998934, 0.7853981633974378429 ) ;
#44 = FACE_OUTER_BOUND ( 'NONE', #203, .T. ) ;
#45 = PRODUCT_DEFINITION_SHAPE ( 'NONE', 'NONE',  #242 ) ;
#46 = DIRECTION ( 'NONE',  ( -1.000000000000000000, 0.0000000000000000000, 0.0000000000000000000 ) ) ;
#47 = AXIS2_PLACEMENT_3D ( 'NONE', #112, #202, #296 ) ;
#48 = FILL_AREA_STYLE_COLOUR ( '', #268 ) ;
#49 = VERTEX_POINT ( 'NONE', #167 ) ;
#50 = PRESENTATION_STYLE_ASSIGNMENT (( #314 ) ) ;
#51 = CARTESIAN_POINT ( 'NONE',  ( -6.017094017094014369, 0.0000000000000000000, 40.00000000000000000 ) ) ;
#52 = VECTOR ( 'NONE', #234, 1000.000000000000000 ) ;
#53 = PRODUCT_DEFINITION_FORMATION_WITH_SPECIFIED_SOURCE ( 'ANY', '', #304, .NOT_KNOWN. ) ;
#54 = DIRECTION ( 'NONE',  ( -0.7071067811865500152, 0.0000000000000000000, 0.7071067811865451302 ) ) ;
#55 = ORIENTED_EDGE ( 'NONE', *, *, #297, .F. ) ;
#56 = APPLICATION_PROTOCOL_DEFINITION ( 'draft international standard', 'automotive_design', 1998, #287 ) ;
#57 = EDGE_LOOP ( 'NONE', ( #13, #136, #27, #132 ) ) ;
#58 = ORIENTED_EDGE ( 'NONE', *, *, #81, .T. ) ;
#59 = ORIENTED_EDGE ( 'NONE', *, *, #182, .T. ) ;
#60 = ORIENTED_EDGE ( 'NONE', *, *, #41, .F. ) ;
#61 = DIRECTION ( 'NONE',  ( -0.0000000000000000000, 0.0000000000000000000, 1.000000000000000000 ) ) ;
#62 = AXIS2_PLACEMENT_3D ( 'NONE', #276, #17, #30 ) ;
#63 = CARTESIAN_POINT ( 'NONE',  ( -46.22222222222222143, 0.0000000000000000000, 0.0000000000000000000 ) ) ;
#64 = EDGE_CURVE ( 'NONE', #239, #313, #118, .T. ) ;
#65 = CARTESIAN_POINT ( 'NONE',  ( -5.517094017093993052, 2.449293598294706513E-15, -20.00000000000000000 ) ) ;
#66 = CARTESIAN_POINT ( 'NONE',  ( -6.017094017094014369, 0.0000000000000000000, 0.0000000000000000000 ) ) ;
#67 = AXIS2_PLACEMENT_3D ( 'NONE', #254, #85, #306 ) ;
#68 = DIRECTION ( 'NONE',  ( -1.000000000000000000, -0.0000000000000000000, -0.0000000000000000000 ) ) ;
#69 = LINE ( 'NONE', #145, #15 ) ;
#70 = ADVANCED_BREP_SHAPE_REPRESENTATION ( 'BRM 40x14', ( #244, #198 ), #312 ) ;
#71 = AXIS2_PLACEMENT_3D ( 'NONE', #171, #281, #20 ) ;
#72 = ORIENTED_EDGE ( 'NONE', *, *, #11, .T. ) ;
#73 = PRODUCT_DEFINITION_CONTEXT ( 'detailed design', #287, 'design' ) ;
#74 = STYLED_ITEM ( 'NONE', ( #3 ), #70 ) ;
#75 = CARTESIAN_POINT ( 'NONE',  ( -5.517094017093993052, 0.0000000000000000000, 20.00000000000000000 ) ) ;
#76 =( NAMED_UNIT ( * ) SI_UNIT ( $, .STERADIAN. ) SOLID_ANGLE_UNIT ( ) );
#77 = ORIENTED_EDGE ( 'NONE', *, *, #89, .F. ) ;
#78 = VERTEX_POINT ( 'NONE', #141 ) ;
#79 = CARTESIAN_POINT ( 'NONE',  ( 73.98290598290599007, 0.0000000000000000000, -20.49999999999998934 ) ) ;
#80 = CIRCLE ( 'NONE', #289, 20.00000000000000000 ) ;
#81 = EDGE_CURVE ( 'NONE', #9, #239, #197, .T. ) ;
#82 = DIRECTION ( 'NONE',  ( -1.000000000000000000, -0.0000000000000000000, -0.0000000000000000000 ) ) ;
#83 = ORIENTED_EDGE ( 'NONE', *, *, #209, .T. ) ;
#84 = ADVANCED_FACE ( 'NONE', ( #143 ), #294, .F. ) ;
#85 = DIRECTION ( 'NONE',  ( 1.000000000000000000, -0.0000000000000000000, -0.0000000000000000000 ) ) ;
#86 = CLOSED_SHELL ( 'NONE', ( #278, #159, #195, #283, #24, #168, #146, #265, #84, #127 ) ) ;
#87 = DIRECTION ( 'NONE',  ( -1.000000000000000000, -0.0000000000000000000, -0.0000000000000000000 ) ) ;
#88 = DIRECTION ( 'NONE',  ( 1.000000000000000000, 0.0000000000000000000, 0.0000000000000000000 ) ) ;
#89 = EDGE_CURVE ( 'NONE', #33, #49, #262, .T. ) ;
#90 = CARTESIAN_POINT ( 'NONE',  ( -46.22222222222222143, 0.0000000000000000000, 40.00000000000000000 ) ) ;
#91 = CARTESIAN_POINT ( 'NONE',  ( -46.22222222222222143, 4.898587196589413026E-15, -40.00000000000000000 ) ) ;
#92 = AXIS2_PLACEMENT_3D ( 'NONE', #257, #117, #21 ) ;
#93 = CIRCLE ( 'NONE', #211, 40.00000000000000000 ) ;
#94 = CARTESIAN_POINT ( 'NONE',  ( 73.98290598290599007, 0.0000000000000000000, 0.0000000000000000000 ) ) ;
#95 = DIRECTION ( 'NONE',  ( 0.0000000000000000000, 0.0000000000000000000, 1.000000000000000000 ) ) ;
#96 = VERTEX_POINT ( 'NONE', #280 ) ;
#97 = EDGE_CURVE ( 'NONE', #206, #33, #142, .T. ) ;
#98 = CARTESIAN_POINT ( 'NONE',  ( 73.48290598290599007, 0.0000000000000000000, 20.00000000000000000 ) ) ;
#99 = VECTOR ( 'NONE', #228, 1000.000000000000000 ) ;
#100 = EDGE_LOOP ( 'NONE', ( #223, #303 ) ) ;
#101 = EDGE_CURVE ( 'NONE', #299, #239, #282, .T. ) ;
#102 = SHAPE_DEFINITION_REPRESENTATION ( #45, #70 ) ;
#103 = ORIENTED_EDGE ( 'NONE', *, *, #225, .T. ) ;
#104 = AXIS2_PLACEMENT_3D ( 'NONE', #66, #121, #305 ) ;
#105 = FILL_AREA_STYLE ('',( #156 ) ) ;
#106 = DIRECTION ( 'NONE',  ( 1.000000000000000000, 0.0000000000000000000, 0.0000000000000000000 ) ) ;
#107 =( NAMED_UNIT ( * ) SI_UNIT ( $, .STERADIAN. ) SOLID_ANGLE_UNIT ( ) );
#108 = EDGE_LOOP ( 'NONE', ( #184, #288, #129, #55 ) ) ;
#109 = EDGE_CURVE ( 'NONE', #206, #299, #80, .T. ) ;
#110 = DIRECTION ( 'NONE',  ( -1.000000000000000000, 0.0000000000000000000, 0.0000000000000000000 ) ) ;
#111 = ORIENTED_EDGE ( 'NONE', *, *, #115, .T. ) ;
#112 = CARTESIAN_POINT ( 'NONE',  ( 73.48290598290599007, 0.0000000000000000000, 0.0000000000000000000 ) ) ;
#113 = CIRCLE ( 'NONE', #92, 40.00000000000000000 ) ;
#114 = ORIENTED_EDGE ( 'NONE', *, *, #138, .T. ) ;
#115 = EDGE_CURVE ( 'NONE', #252, #78, #124, .T. ) ;
#116 = DIRECTION ( 'NONE',  ( -1.000000000000000000, -0.0000000000000000000, -0.0000000000000000000 ) ) ;
#117 = DIRECTION ( 'NONE',  ( -1.000000000000000000, -0.0000000000000000000, -0.0000000000000000000 ) ) ;
#118 = LINE ( 'NONE', #65, #231 ) ;
#119 = DIRECTION ( 'NONE',  ( 0.0000000000000000000, 0.0000000000000000000, 1.000000000000000000 ) ) ;
#120 = EDGE_CURVE ( 'NONE', #313, #96, #267, .T. ) ;
#121 = DIRECTION ( 'NONE',  ( -1.000000000000000000, -0.0000000000000000000, -0.0000000000000000000 ) ) ;
#122 = AXIS2_PLACEMENT_3D ( 'NONE', #162, #106, #251 ) ;
#123 = ORIENTED_EDGE ( 'NONE', *, *, #97, .T. ) ;
#124 = CIRCLE ( 'NONE', #104, 40.00000000000000000 ) ;
#125 = AXIS2_PLACEMENT_3D ( 'NONE', #18, #116, #166 ) ;
#126 = FACE_OUTER_BOUND ( 'NONE', #181, .T. ) ;
#127 = ADVANCED_FACE ( 'NONE', ( #259 ), #130, .F. ) ;
#128 = DIRECTION ( 'NONE',  ( 0.0000000000000000000, 0.0000000000000000000, 1.000000000000000000 ) ) ;
#129 = ORIENTED_EDGE ( 'NONE', *, *, #31, .F. ) ;
#130 = CONICAL_SURFACE ( 'NONE', #67, 20.49999999999998934, 0.7853981633974378429 ) ;
#131 = AXIS2_PLACEMENT_3D ( 'NONE', #270, #110, #273 ) ;
#132 = ORIENTED_EDGE ( 'NONE', *, *, #182, .F. ) ;
#133 = SURFACE_STYLE_USAGE ( .BOTH. , #249 ) ;
#134 = ORIENTED_EDGE ( 'NONE', *, *, #177, .F. ) ;
#135 = DIRECTION ( 'NONE',  ( 0.0000000000000000000, 0.0000000000000000000, 1.000000000000000000 ) ) ;
#136 = ORIENTED_EDGE ( 'NONE', *, *, #101, .T. ) ;
#137 = ORIENTED_EDGE ( 'NONE', *, *, #201, .T. ) ;
#138 = EDGE_CURVE ( 'NONE', #224, #226, #113, .T. ) ;
#139 = AXIS2_PLACEMENT_3D ( 'NONE', #155, #178, #153 ) ;
#140 = FACE_OUTER_BOUND ( 'NONE', #57, .T. ) ;
#141 = CARTESIAN_POINT ( 'NONE',  ( -6.017094017094014369, 4.898587196589413026E-15, -40.00000000000000000 ) ) ;
#142 = LINE ( 'NONE', #212, #164 ) ;
#143 = FACE_OUTER_BOUND ( 'NONE', #179, .T. ) ;
#144 = CYLINDRICAL_SURFACE ( 'NONE', #38, 20.00000000000000000 ) ;
#145 = CARTESIAN_POINT ( 'NONE',  ( -46.22222222222222143, 0.0000000000000000000, 20.00000000000000000 ) ) ;
#146 = ADVANCED_FACE ( 'NONE', ( #191, #44 ), #235, .F. ) ;
#147 = CIRCLE ( 'NONE', #264, 20.49999999999998934 ) ;
#148 = ORIENTED_EDGE ( 'NONE', *, *, #101, .F. ) ;
#149 = LINE ( 'NONE', #90, #52 ) ;
#150 =( NAMED_UNIT ( * ) SI_UNIT ( $, .STERADIAN. ) SOLID_ANGLE_UNIT ( ) );
#151 = AXIS2_PLACEMENT_3D ( 'NONE', #255, #232, #119 ) ;
#152 = MECHANICAL_DESIGN_GEOMETRIC_PRESENTATION_REPRESENTATION (  '', ( #74 ), #170 ) ;
#153 = DIRECTION ( 'NONE',  ( 0.0000000000000000000, 0.0000000000000000000, -1.000000000000000000 ) ) ;
#154 = APPLICATION_PROTOCOL_DEFINITION ( 'draft international standard', 'automotive_design', 1998, #26 ) ;
#155 = CARTESIAN_POINT ( 'NONE',  ( 73.98290598290599007, 0.0000000000000000000, 0.0000000000000000000 ) ) ;
#156 = FILL_AREA_STYLE_COLOUR ( '', #290 ) ;
#157 = ORIENTED_EDGE ( 'NONE', *, *, #138, .F. ) ;
#158 = CARTESIAN_POINT ( 'NONE',  ( -5.517094017093993052, 0.0000000000000000000, 20.00000000000000000 ) ) ;
#159 = ADVANCED_FACE ( 'NONE', ( #213 ), #1, .F. ) ;
#160 = UNCERTAINTY_MEASURE_WITH_UNIT (LENGTH_MEASURE( 1.000000000000000082E-05 ), #286, 'distance_accuracy_value', 'NONE');
#161 = ORIENTED_EDGE ( 'NONE', *, *, #297, .T. ) ;
#162 = CARTESIAN_POINT ( 'NONE',  ( -6.017094017094014369, 0.0000000000000000000, 0.0000000000000000000 ) ) ;
#163 = DIRECTION ( 'NONE',  ( 0.0000000000000000000, 0.0000000000000000000, 1.000000000000000000 ) ) ;
#164 = VECTOR ( 'NONE', #42, 1000.000000000000000 ) ;
#165 = DIRECTION ( 'NONE',  ( 0.0000000000000000000, 0.0000000000000000000, 1.000000000000000000 ) ) ;
#166 = DIRECTION ( 'NONE',  ( 0.0000000000000000000, 0.0000000000000000000, 1.000000000000000000 ) ) ;
#167 = CARTESIAN_POINT ( 'NONE',  ( 73.98290598290599007, 0.0000000000000000000, -20.49999999999998934 ) ) ;
#168 = ADVANCED_FACE ( 'NONE', ( #308 ), #208, .T. ) ;
#169 = DIRECTION ( 'NONE',  ( 0.0000000000000000000, 0.0000000000000000000, 1.000000000000000000 ) ) ;
#170 =( GEOMETRIC_REPRESENTATION_CONTEXT ( 3 ) GLOBAL_UNCERTAINTY_ASSIGNED_CONTEXT ( ( #6 ) ) GLOBAL_UNIT_ASSIGNED_CONTEXT ( ( #29, #199, #76 ) ) REPRESENTATION_CONTEXT ( 'NONE', 'WORKASPACE' ) );
#171 = CARTESIAN_POINT ( 'NONE',  ( -5.517094017093993052, 0.0000000000000000000, 0.0000000000000000000 ) ) ;
#172 = UNCERTAINTY_MEASURE_WITH_UNIT (LENGTH_MEASURE( 1.000000000000000082E-05 ), #180, 'distance_accuracy_value', 'NONE');
#173 = CIRCLE ( 'NONE', #47, 20.00000000000000000 ) ;
#174 = PRESENTATION_LAYER_ASSIGNMENT (  '', '', ( #74 ) ) ;
#175 = CARTESIAN_POINT ( 'NONE',  ( 73.98290598290599007, 0.0000000000000000000, 40.00000000000000000 ) ) ;
#176 = ORIENTED_EDGE ( 'NONE', *, *, #34, .T. ) ;
#177 = EDGE_CURVE ( 'NONE', #226, #78, #311, .T. ) ;
#178 = DIRECTION ( 'NONE',  ( 1.000000000000000000, -0.0000000000000000000, -0.0000000000000000000 ) ) ;
#179 = EDGE_LOOP ( 'NONE', ( #220, #277, #161, #263 ) ) ;
#180 =( LENGTH_UNIT ( ) NAMED_UNIT ( * ) SI_UNIT ( .MILLI., .METRE. ) );
#181 = EDGE_LOOP ( 'NONE', ( #148, #176, #59, #58 ) ) ;
#182 = EDGE_CURVE ( 'NONE', #206, #9, #69, .T. ) ;
#183 = DIRECTION ( 'NONE',  ( 1.000000000000000000, 0.0000000000000000000, 0.0000000000000000000 ) ) ;
#184 = ORIENTED_EDGE ( 'NONE', *, *, #291, .F. ) ;
#185 = EDGE_LOOP ( 'NONE', ( #12, #123, #215, #14 ) ) ;
#186 = AXIS2_PLACEMENT_3D ( 'NONE', #63, #87, #192 ) ;
#187 = EDGE_LOOP ( 'NONE', ( #134, #83, #137, #60 ) ) ;
#188 = ORIENTED_EDGE ( 'NONE', *, *, #34, .F. ) ;
#189 = CARTESIAN_POINT ( 'NONE',  ( -6.017094017094014369, 0.0000000000000000000, 0.0000000000000000000 ) ) ;
#190 = VECTOR ( 'NONE', #39, 1000.000000000000000 ) ;
#191 = FACE_BOUND ( 'NONE', #271, .T. ) ;
#192 = DIRECTION ( 'NONE',  ( 0.0000000000000000000, 0.0000000000000000000, 1.000000000000000000 ) ) ;
#193 = DIRECTION ( 'NONE',  ( 0.0000000000000000000, 0.0000000000000000000, -1.000000000000000000 ) ) ;
#194 = CARTESIAN_POINT ( 'NONE',  ( 73.98290598290599007, 40.00000000000000000, 0.0000000000000000000 ) ) ;
#195 = ADVANCED_FACE ( 'NONE', ( #140 ), #229, .F. ) ;
#196 = DIRECTION ( 'NONE',  ( 0.0000000000000000000, 0.0000000000000000000, 1.000000000000000000 ) ) ;
#197 = CIRCLE ( 'NONE', #71, 20.00000000000000000 ) ;
#198 = AXIS2_PLACEMENT_3D ( 'NONE', #35, #135, #183 ) ;
#199 =( NAMED_UNIT ( * ) PLANE_ANGLE_UNIT ( ) SI_UNIT ( $, .RADIAN. ) );
#200 = LINE ( 'NONE', #75, #16 ) ;
#201 = EDGE_CURVE ( 'NONE', #224, #252, #149, .T. ) ;
#202 = DIRECTION ( 'NONE',  ( 1.000000000000000000, -0.0000000000000000000, -0.0000000000000000000 ) ) ;
#203 = EDGE_LOOP ( 'NONE', ( #157, #274 ) ) ;
#204 =( NAMED_UNIT ( * ) PLANE_ANGLE_UNIT ( ) SI_UNIT ( $, .RADIAN. ) );
#205 = FACE_OUTER_BOUND ( 'NONE', #37, .T. ) ;
#206 = VERTEX_POINT ( 'NONE', #98 ) ;
#207 = ORIENTED_EDGE ( 'NONE', *, *, #97, .F. ) ;
#208 = CYLINDRICAL_SURFACE ( 'NONE', #186, 40.00000000000000000 ) ;
#209 = EDGE_CURVE ( 'NONE', #226, #224, #93, .T. ) ;
#210 = CARTESIAN_POINT ( 'NONE',  ( -5.517094017093993052, 0.0000000000000000000, 0.0000000000000000000 ) ) ;
#211 = AXIS2_PLACEMENT_3D ( 'NONE', #310, #68, #95 ) ;
#212 = CARTESIAN_POINT ( 'NONE',  ( 73.98290598290599007, 2.510525938252072904E-15, 20.49999999999998934 ) ) ;
#213 = FACE_OUTER_BOUND ( 'NONE', #108, .T. ) ;
#214 = DIRECTION ( 'NONE',  ( -1.000000000000000000, 0.0000000000000000000, -0.0000000000000000000 ) ) ;
#215 = ORIENTED_EDGE ( 'NONE', *, *, #225, .F. ) ;
#216 = SURFACE_SIDE_STYLE ('',( #22 ) ) ;
#217 = CIRCLE ( 'NONE', #275, 40.00000000000000000 ) ;
#218 = CIRCLE ( 'NONE', #131, 20.00000000000000000 ) ;
#219 =( NAMED_UNIT ( * ) PLANE_ANGLE_UNIT ( ) SI_UNIT ( $, .RADIAN. ) );
#220 = ORIENTED_EDGE ( 'NONE', *, *, #64, .F. ) ;
#221 = DIRECTION ( 'NONE',  ( -1.000000000000000000, -0.0000000000000000000, -0.0000000000000000000 ) ) ;
#222 = ORIENTED_EDGE ( 'NONE', *, *, #201, .F. ) ;
#223 = ORIENTED_EDGE ( 'NONE', *, *, #31, .T. ) ;
#224 = VERTEX_POINT ( 'NONE', #175 ) ;
#225 = EDGE_CURVE ( 'NONE', #49, #33, #147, .T. ) ;
#226 = VERTEX_POINT ( 'NONE', #261 ) ;
#227 = CIRCLE ( 'NONE', #122, 20.50000000000001776 ) ;
#228 = DIRECTION ( 'NONE',  ( 0.7071067811865549002, 0.0000000000000000000, -0.7071067811865401342 ) ) ;
#229 = CYLINDRICAL_SURFACE ( 'NONE', #125, 20.00000000000000000 ) ;
#230 = DIRECTION ( 'NONE',  ( 0.0000000000000000000, 0.0000000000000000000, 1.000000000000000000 ) ) ;
#231 = VECTOR ( 'NONE', #40, 1000.000000000000114 ) ;
#232 = DIRECTION ( 'NONE',  ( -1.000000000000000000, -0.0000000000000000000, -0.0000000000000000000 ) ) ;
#233 = STYLED_ITEM ( 'NONE', ( #50 ), #244 ) ;
#234 = DIRECTION ( 'NONE',  ( -1.000000000000000000, -0.0000000000000000000, -0.0000000000000000000 ) ) ;
#235 = PLANE ( 'NONE',  #309 ) ;
#236 = FILL_AREA_STYLE ('',( #48 ) ) ;
#237 = DIRECTION ( 'NONE',  ( -1.000000000000000000, -0.0000000000000000000, -0.0000000000000000000 ) ) ;
#238 = AXIS2_PLACEMENT_3D ( 'NONE', #256, #46, #230 ) ;
#239 = VERTEX_POINT ( 'NONE', #258 ) ;
#240 = AXIS2_PLACEMENT_3D ( 'NONE', #189, #88, #193 ) ;
#241 = FACE_OUTER_BOUND ( 'NONE', #32, .T. ) ;
#242 = PRODUCT_DEFINITION ( 'UNKNOWN', '', #53, #73 ) ;
#243 = PRODUCT_CONTEXT ( 'NONE', #26, 'mechanical' ) ;
#244 = MANIFOLD_SOLID_BREP ( 'Chamfer1', #86 ) ;
#245 = CYLINDRICAL_SURFACE ( 'NONE', #301, 40.00000000000000000 ) ;
#246 = LINE ( 'NONE', #79, #99 ) ;
#247 = CARTESIAN_POINT ( 'NONE',  ( -6.017094017094014369, 0.0000000000000000000, 0.0000000000000000000 ) ) ;
#248 = VECTOR ( 'NONE', #279, 1000.000000000000000 ) ;
#249 = SURFACE_SIDE_STYLE ('',( #295 ) ) ;
#250 = FACE_BOUND ( 'NONE', #100, .T. ) ;
#251 = DIRECTION ( 'NONE',  ( 0.0000000000000000000, 0.0000000000000000000, -1.000000000000000000 ) ) ;
#252 = VERTEX_POINT ( 'NONE', #51 ) ;
#253 = PRESENTATION_LAYER_ASSIGNMENT (  '', '', ( #233 ) ) ;
#254 = CARTESIAN_POINT ( 'NONE',  ( 73.98290598290599007, 0.0000000000000000000, 0.0000000000000000000 ) ) ;
#255 = CARTESIAN_POINT ( 'NONE',  ( 73.98290598290599007, 0.0000000000000000000, 0.0000000000000000000 ) ) ;
#256 = CARTESIAN_POINT ( 'NONE',  ( -5.517094017093993052, 0.0000000000000000000, 0.0000000000000000000 ) ) ;
#257 = CARTESIAN_POINT ( 'NONE',  ( 73.98290598290599007, 0.0000000000000000000, 0.0000000000000000000 ) ) ;
#258 = CARTESIAN_POINT ( 'NONE',  ( -5.517094017093993052, 2.449293598294706513E-15, -20.00000000000000000 ) ) ;
#259 = FACE_OUTER_BOUND ( 'NONE', #302, .T. ) ;
#260 = DIRECTION ( 'NONE',  ( -1.000000000000000000, -0.0000000000000000000, -0.0000000000000000000 ) ) ;
#261 = CARTESIAN_POINT ( 'NONE',  ( 73.98290598290599007, 4.898587196589413026E-15, -40.00000000000000000 ) ) ;
#262 = CIRCLE ( 'NONE', #151, 20.49999999999998934 ) ;
#263 = ORIENTED_EDGE ( 'NONE', *, *, #120, .F. ) ;
#264 = AXIS2_PLACEMENT_3D ( 'NONE', #94, #260, #196 ) ;
#265 = ADVANCED_FACE ( 'NONE', ( #126 ), #144, .F. ) ;
#266 = ORIENTED_EDGE ( 'NONE', *, *, #177, .T. ) ;
#267 = CIRCLE ( 'NONE', #240, 20.50000000000001776 ) ;
#268 = COLOUR_RGB ( '',0.7921568627450980005, 0.8196078431372548767, 0.9333333333333333481 ) ;
#269 = DIRECTION ( 'NONE',  ( 0.0000000000000000000, 0.0000000000000000000, 1.000000000000000000 ) ) ;
#270 = CARTESIAN_POINT ( 'NONE',  ( -5.517094017093993052, 0.0000000000000000000, 0.0000000000000000000 ) ) ;
#271 = EDGE_LOOP ( 'NONE', ( #103, #272 ) ) ;
#272 = ORIENTED_EDGE ( 'NONE', *, *, #89, .T. ) ;
#273 = DIRECTION ( 'NONE',  ( 0.0000000000000000000, 0.0000000000000000000, -1.000000000000000000 ) ) ;
#274 = ORIENTED_EDGE ( 'NONE', *, *, #209, .F. ) ;
#275 = AXIS2_PLACEMENT_3D ( 'NONE', #247, #82, #163 ) ;
#276 = CARTESIAN_POINT ( 'NONE',  ( -6.017094017094014369, 20.00000000000000000, 0.0000000000000000000 ) ) ;
#277 = ORIENTED_EDGE ( 'NONE', *, *, #81, .F. ) ;
#278 = ADVANCED_FACE ( 'NONE', ( #292 ), #43, .F. ) ;
#279 = DIRECTION ( 'NONE',  ( -1.000000000000000000, -0.0000000000000000000, -0.0000000000000000000 ) ) ;
#280 = CARTESIAN_POINT ( 'NONE',  ( -6.017094017094014369, 0.0000000000000000000, 20.50000000000001776 ) ) ;
#281 = DIRECTION ( 'NONE',  ( -1.000000000000000000, 0.0000000000000000000, 0.0000000000000000000 ) ) ;
#282 = LINE ( 'NONE', #23, #248 ) ;
#283 = ADVANCED_FACE ( 'NONE', ( #241 ), #245, .T. ) ;
#284 = AXIS2_PLACEMENT_3D ( 'NONE', #210, #285, #165 ) ;
#285 = DIRECTION ( 'NONE',  ( -1.000000000000000000, 0.0000000000000000000, 0.0000000000000000000 ) ) ;
#286 =( LENGTH_UNIT ( ) NAMED_UNIT ( * ) SI_UNIT ( .MILLI., .METRE. ) );
#287 = APPLICATION_CONTEXT ( 'automotive_design' ) ;
#288 = ORIENTED_EDGE ( 'NONE', *, *, #64, .T. ) ;
#289 = AXIS2_PLACEMENT_3D ( 'NONE', #19, #307, #169 ) ;
#290 = COLOUR_RGB ( '',0.7921568627450980005, 0.8196078431372548767, 0.9333333333333333481 ) ;
#291 = EDGE_CURVE ( 'NONE', #239, #9, #218, .T. ) ;
#292 = FACE_OUTER_BOUND ( 'NONE', #185, .T. ) ;
#293 = CARTESIAN_POINT ( 'NONE',  ( -6.017094017094014369, 2.510525938252076059E-15, -20.50000000000001776 ) ) ;
#294 = CONICAL_SURFACE ( 'NONE', #238, 20.00000000000000000, 0.7853981633974447263 ) ;
#295 = SURFACE_STYLE_FILL_AREA ( #105 ) ;
#296 = DIRECTION ( 'NONE',  ( 0.0000000000000000000, 0.0000000000000000000, 1.000000000000000000 ) ) ;
#297 = EDGE_CURVE ( 'NONE', #9, #96, #200, .T. ) ;
#298 = CARTESIAN_POINT ( 'NONE',  ( 73.48290598290599007, 2.449293598294706513E-15, -20.00000000000000000 ) ) ;
#299 = VERTEX_POINT ( 'NONE', #298 ) ;
#300 = PLANE ( 'NONE',  #62 ) ;
#301 = AXIS2_PLACEMENT_3D ( 'NONE', #28, #221, #128 ) ;
#302 = EDGE_LOOP ( 'NONE', ( #207, #188, #72, #77 ) ) ;
#303 = ORIENTED_EDGE ( 'NONE', *, *, #120, .T. ) ;
#304 = PRODUCT ( 'BRM 40x14', 'BRM 40x14', '', ( #243 ) ) ;
#305 = DIRECTION ( 'NONE',  ( 0.0000000000000000000, 0.0000000000000000000, 1.000000000000000000 ) ) ;
#306 = DIRECTION ( 'NONE',  ( 0.0000000000000000000, 0.0000000000000000000, -1.000000000000000000 ) ) ;
#307 = DIRECTION ( 'NONE',  ( 1.000000000000000000, -0.0000000000000000000, -0.0000000000000000000 ) ) ;
#308 = FACE_OUTER_BOUND ( 'NONE', #187, .T. ) ;
#309 = AXIS2_PLACEMENT_3D ( 'NONE', #194, #214, #61 ) ;
#310 = CARTESIAN_POINT ( 'NONE',  ( 73.98290598290599007, 0.0000000000000000000, 0.0000000000000000000 ) ) ;
#311 = LINE ( 'NONE', #91, #190 ) ;
#312 =( GEOMETRIC_REPRESENTATION_CONTEXT ( 3 ) GLOBAL_UNCERTAINTY_ASSIGNED_CONTEXT ( ( #172 ) ) GLOBAL_UNIT_ASSIGNED_CONTEXT ( ( #180, #204, #107 ) ) REPRESENTATION_CONTEXT ( 'NONE', 'WORKASPACE' ) );
#313 = VERTEX_POINT ( 'NONE', #293 ) ;
#314 = SURFACE_STYLE_USAGE ( .BOTH. , #216 ) ;
ENDSEC;
END-ISO-10303-21;
