ISO-10303-21;
HEADER;
FILE_DESCRIPTION (( 'STEP AP214' ),
    '1' );
FILE_NAME ('BRM 12x6.step',
    '2020-09-08T10:22:23',
    ( '' ),
    ( '' ),
    'SwSTEP 2.0',
    'SolidWorks 2020',
    '' );
FILE_SCHEMA (( 'AUTOMOTIVE_DESIGN' ));
ENDSEC;

DATA;
#1 = CARTESIAN_POINT ( 'NONE',  ( 17.98290598290598652, 0.0000000000000000000, 0.0000000000000000000 ) ) ;
#2 =( LENGTH_UNIT ( ) NAMED_UNIT ( * ) SI_UNIT ( .MILLI., .METRE. ) );
#3 = EDGE_LOOP ( 'NONE', ( #234, #124 ) ) ;
#4 =( LENGTH_UNIT ( ) NAMED_UNIT ( * ) SI_UNIT ( .MILLI., .METRE. ) );
#5 = VERTEX_POINT ( 'NONE', #136 ) ;
#6 = ORIENTED_EDGE ( 'NONE', *, *, #205, .F. ) ;
#7 = PRESENTATION_STYLE_ASSIGNMENT (( #40 ) ) ;
#8 = ORIENTED_EDGE ( 'NONE', *, *, #42, .T. ) ;
#9 = ADVANCED_FACE ( 'NONE', ( #183, #165 ), #161, .F. ) ;
#10 = EDGE_LOOP ( 'NONE', ( #251, #208 ) ) ;
#11 = ORIENTED_EDGE ( 'NONE', *, *, #304, .T. ) ;
#12 = DIRECTION ( 'NONE',  ( 0.0000000000000000000, 0.0000000000000000000, 1.000000000000000000 ) ) ;
#13 = AXIS2_PLACEMENT_3D ( 'NONE', #279, #133, #111 ) ;
#14 = AXIS2_PLACEMENT_3D ( 'NONE', #286, #98, #194 ) ;
#15 = DIRECTION ( 'NONE',  ( -1.000000000000000000, -0.0000000000000000000, -0.0000000000000000000 ) ) ;
#16 = PRESENTATION_LAYER_ASSIGNMENT (  '', '', ( #164 ) ) ;
#17 = FACE_OUTER_BOUND ( 'NONE', #65, .T. ) ;
#18 = EDGE_CURVE ( 'NONE', #107, #213, #29, .T. ) ;
#19 = CARTESIAN_POINT ( 'NONE',  ( 17.98290598290598652, 0.0000000000000000000, 0.0000000000000000000 ) ) ;
#20 = CYLINDRICAL_SURFACE ( 'NONE', #307, 13.00000000000000000 ) ;
#21 = DIRECTION ( 'NONE',  ( 0.0000000000000000000, 0.0000000000000000000, 1.000000000000000000 ) ) ;
#22 = PRESENTATION_LAYER_ASSIGNMENT (  '', '', ( #223 ) ) ;
#23 = AXIS2_PLACEMENT_3D ( 'NONE', #139, #12, #280 ) ;
#24 = ADVANCED_FACE ( 'NONE', ( #159 ), #156, .F. ) ;
#25 = DIRECTION ( 'NONE',  ( 1.000000000000000000, -0.0000000000000000000, -0.0000000000000000000 ) ) ;
#26 = EDGE_LOOP ( 'NONE', ( #37, #281, #283, #248 ) ) ;
#27 = EDGE_CURVE ( 'NONE', #221, #148, #243, .T. ) ;
#28 =( NAMED_UNIT ( * ) SI_UNIT ( $, .STERADIAN. ) SOLID_ANGLE_UNIT ( ) );
#29 = CIRCLE ( 'NONE', #101, 6.500000000000002665 ) ;
#30 = AXIS2_PLACEMENT_3D ( 'NONE', #120, #215, #118 ) ;
#31 = EDGE_LOOP ( 'NONE', ( #270, #300, #254, #268 ) ) ;
#32 = SURFACE_SIDE_STYLE ('',( #80 ) ) ;
#33 = VERTEX_POINT ( 'NONE', #218 ) ;
#34 = CARTESIAN_POINT ( 'NONE',  ( 17.98290598290598652, 13.00000000000000000, 0.0000000000000000000 ) ) ;
#35 = ORIENTED_EDGE ( 'NONE', *, *, #88, .T. ) ;
#36 = APPLICATION_PROTOCOL_DEFINITION ( 'draft international standard', 'automotive_design', 1998, #121 ) ;
#37 = ORIENTED_EDGE ( 'NONE', *, *, #188, .T. ) ;
#38 = AXIS2_PLACEMENT_3D ( 'NONE', #149, #49, #41 ) ;
#39 = VERTEX_POINT ( 'NONE', #45 ) ;
#40 = SURFACE_STYLE_USAGE ( .BOTH. , #258 ) ;
#41 = DIRECTION ( 'NONE',  ( 0.0000000000000000000, 0.0000000000000000000, 1.000000000000000000 ) ) ;
#42 = EDGE_CURVE ( 'NONE', #131, #247, #187, .T. ) ;
#43 = CLOSED_SHELL ( 'NONE', ( #202, #24, #91, #146, #9, #55, #259, #233, #168, #171 ) ) ;
#44 = AXIS2_PLACEMENT_3D ( 'NONE', #34, #100, #250 ) ;
#45 = CARTESIAN_POINT ( 'NONE',  ( 17.98290598290598652, 7.960204194457793505E-16, 6.499999999999998224 ) ) ;
#46 = COLOUR_RGB ( '',0.7921568627450980005, 0.8196078431372548767, 0.9333333333333333481 ) ;
#47 = DIRECTION ( 'NONE',  ( -1.000000000000000000, 0.0000000000000000000, 0.0000000000000000000 ) ) ;
#48 = DIRECTION ( 'NONE',  ( 0.0000000000000000000, 0.0000000000000000000, -1.000000000000000000 ) ) ;
#49 = DIRECTION ( 'NONE',  ( -1.000000000000000000, -0.0000000000000000000, -0.0000000000000000000 ) ) ;
#50 = EDGE_CURVE ( 'NONE', #5, #295, #287, .T. ) ;
#51 = CARTESIAN_POINT ( 'NONE',  ( 17.48290598290598652, 0.0000000000000000000, 0.0000000000000000000 ) ) ;
#52 = CIRCLE ( 'NONE', #237, 6.000000000000000000 ) ;
#53 = ORIENTED_EDGE ( 'NONE', *, *, #189, .T. ) ;
#54 = DIRECTION ( 'NONE',  ( 0.0000000000000000000, 0.0000000000000000000, 1.000000000000000000 ) ) ;
#55 = ADVANCED_FACE ( 'NONE', ( #17 ), #198, .T. ) ;
#56 = DIRECTION ( 'NONE',  ( 0.7071067811865493491, 0.0000000000000000000, -0.7071067811865456854 ) ) ;
#57 = ORIENTED_EDGE ( 'NONE', *, *, #27, .F. ) ;
#58 = DIRECTION ( 'NONE',  ( -0.7071067811865463515, 0.0000000000000000000, 0.7071067811865487940 ) ) ;
#59 = CIRCLE ( 'NONE', #74, 6.499999999999998224 ) ;
#60 = PRODUCT_DEFINITION_FORMATION_WITH_SPECIFIED_SOURCE ( 'ANY', '', #220, .NOT_KNOWN. ) ;
#61 = ORIENTED_EDGE ( 'NONE', *, *, #95, .F. ) ;
#62 = UNCERTAINTY_MEASURE_WITH_UNIT (LENGTH_MEASURE( 1.000000000000000082E-05 ), #4, 'distance_accuracy_value', 'NONE');
#63 = LINE ( 'NONE', #151, #135 ) ;
#64 = ORIENTED_EDGE ( 'NONE', *, *, #290, .T. ) ;
#65 = EDGE_LOOP ( 'NONE', ( #87, #199, #35, #210 ) ) ;
#66 = PRODUCT_RELATED_PRODUCT_CATEGORY ( 'part', '', ( #220 ) ) ;
#67 = EDGE_LOOP ( 'NONE', ( #212, #126, #306, #112 ) ) ;
#68 = LINE ( 'NONE', #119, #196 ) ;
#69 = AXIS2_PLACEMENT_3D ( 'NONE', #206, #114, #298 ) ;
#70 = DIRECTION ( 'NONE',  ( -1.000000000000000000, -0.0000000000000000000, -0.0000000000000000000 ) ) ;
#71 = ADVANCED_BREP_SHAPE_REPRESENTATION ( 'BRM 12x6', ( #296, #23 ), #255 ) ;
#72 = DIRECTION ( 'NONE',  ( 0.7071067811865493491, 8.659560562354910671E-17, 0.7071067811865456854 ) ) ;
#73 = AXIS2_PLACEMENT_3D ( 'NONE', #231, #70, #263 ) ;
#74 = AXIS2_PLACEMENT_3D ( 'NONE', #262, #77, #166 ) ;
#75 = EDGE_CURVE ( 'NONE', #39, #226, #59, .T. ) ;
#76 = CARTESIAN_POINT ( 'NONE',  ( -6.017094017094014369, 0.0000000000000000000, 6.500000000000002665 ) ) ;
#77 = DIRECTION ( 'NONE',  ( -1.000000000000000000, -0.0000000000000000000, -0.0000000000000000000 ) ) ;
#78 = CARTESIAN_POINT ( 'NONE',  ( 17.48290598290598652, 0.0000000000000000000, 0.0000000000000000000 ) ) ;
#79 = LINE ( 'NONE', #272, #177 ) ;
#80 = SURFACE_STYLE_FILL_AREA ( #299 ) ;
#81 = DIRECTION ( 'NONE',  ( 0.0000000000000000000, 0.0000000000000000000, -1.000000000000000000 ) ) ;
#82 = SURFACE_STYLE_USAGE ( .BOTH. , #32 ) ;
#83 = VECTOR ( 'NONE', #72, 1000.000000000000000 ) ;
#84 = DIRECTION ( 'NONE',  ( 1.000000000000000000, 0.0000000000000000000, 0.0000000000000000000 ) ) ;
#85 = EDGE_LOOP ( 'NONE', ( #53, #8, #162, #185 ) ) ;
#86 =( NAMED_UNIT ( * ) SI_UNIT ( $, .STERADIAN. ) SOLID_ANGLE_UNIT ( ) );
#87 = ORIENTED_EDGE ( 'NONE', *, *, #142, .F. ) ;
#88 = EDGE_CURVE ( 'NONE', #148, #295, #93, .T. ) ;
#89 = LINE ( 'NONE', #238, #197 ) ;
#90 = AXIS2_PLACEMENT_3D ( 'NONE', #51, #25, #182 ) ;
#91 = ADVANCED_FACE ( 'NONE', ( #311 ), #313, .F. ) ;
#92 = VECTOR ( 'NONE', #144, 1000.000000000000000 ) ;
#93 = LINE ( 'NONE', #140, #264 ) ;
#94 = LINE ( 'NONE', #96, #92 ) ;
#95 = EDGE_CURVE ( 'NONE', #247, #213, #94, .T. ) ;
#96 = CARTESIAN_POINT ( 'NONE',  ( -5.517094017094013481, 7.347880794884119736E-16, -6.000000000000000000 ) ) ;
#97 = AXIS2_PLACEMENT_3D ( 'NONE', #19, #216, #195 ) ;
#98 = DIRECTION ( 'NONE',  ( -1.000000000000000000, 0.0000000000000000000, 0.0000000000000000000 ) ) ;
#99 = CARTESIAN_POINT ( 'NONE',  ( -46.22222222222222143, 0.0000000000000000000, 0.0000000000000000000 ) ) ;
#100 = DIRECTION ( 'NONE',  ( -1.000000000000000000, 0.0000000000000000000, -0.0000000000000000000 ) ) ;
#101 = AXIS2_PLACEMENT_3D ( 'NONE', #228, #84, #81 ) ;
#102 = CARTESIAN_POINT ( 'NONE',  ( -6.017094017094014369, 0.0000000000000000000, 13.00000000000000000 ) ) ;
#103 = MECHANICAL_DESIGN_GEOMETRIC_PRESENTATION_REPRESENTATION (  '', ( #164 ), #191 ) ;
#104 = DIRECTION ( 'NONE',  ( 1.000000000000000000, -0.0000000000000000000, -0.0000000000000000000 ) ) ;
#105 = ORIENTED_EDGE ( 'NONE', *, *, #108, .F. ) ;
#106 = DIRECTION ( 'NONE',  ( 0.0000000000000000000, 0.0000000000000000000, -1.000000000000000000 ) ) ;
#107 = VERTEX_POINT ( 'NONE', #76 ) ;
#108 = EDGE_CURVE ( 'NONE', #247, #33, #110, .T. ) ;
#109 = VECTOR ( 'NONE', #116, 1000.000000000000000 ) ;
#110 = CIRCLE ( 'NONE', #14, 6.000000000000000000 ) ;
#111 = DIRECTION ( 'NONE',  ( 0.0000000000000000000, 0.0000000000000000000, 1.000000000000000000 ) ) ;
#112 = ORIENTED_EDGE ( 'NONE', *, *, #184, .T. ) ;
#113 = FILL_AREA_STYLE_COLOUR ( '', #46 ) ;
#114 = DIRECTION ( 'NONE',  ( 1.000000000000000000, 0.0000000000000000000, 0.0000000000000000000 ) ) ;
#115 = EDGE_CURVE ( 'NONE', #276, #39, #175, .T. ) ;
#116 = DIRECTION ( 'NONE',  ( -1.000000000000000000, -0.0000000000000000000, -0.0000000000000000000 ) ) ;
#117 = AXIS2_PLACEMENT_3D ( 'NONE', #78, #104, #246 ) ;
#118 = DIRECTION ( 'NONE',  ( 0.0000000000000000000, 0.0000000000000000000, 1.000000000000000000 ) ) ;
#119 = CARTESIAN_POINT ( 'NONE',  ( -46.22222222222222143, 1.592040838891559095E-15, -13.00000000000000000 ) ) ;
#120 = CARTESIAN_POINT ( 'NONE',  ( -6.017094017094014369, 0.0000000000000000000, 0.0000000000000000000 ) ) ;
#121 = APPLICATION_CONTEXT ( 'automotive_design' ) ;
#122 = AXIS2_PLACEMENT_3D ( 'NONE', #192, #294, #289 ) ;
#123 = FACE_OUTER_BOUND ( 'NONE', #26, .T. ) ;
#124 = ORIENTED_EDGE ( 'NONE', *, *, #193, .T. ) ;
#125 = FILL_AREA_STYLE_COLOUR ( '', #173 ) ;
#126 = ORIENTED_EDGE ( 'NONE', *, *, #256, .T. ) ;
#127 = PLANE ( 'NONE',  #44 ) ;
#128 = FACE_OUTER_BOUND ( 'NONE', #138, .T. ) ;
#129 = ORIENTED_EDGE ( 'NONE', *, *, #193, .F. ) ;
#130 = DIRECTION ( 'NONE',  ( 0.0000000000000000000, 0.0000000000000000000, 1.000000000000000000 ) ) ;
#131 = VERTEX_POINT ( 'NONE', #241 ) ;
#132 = DIRECTION ( 'NONE',  ( -1.000000000000000000, -0.0000000000000000000, -0.0000000000000000000 ) ) ;
#133 = DIRECTION ( 'NONE',  ( -1.000000000000000000, 0.0000000000000000000, 0.0000000000000000000 ) ) ;
#134 = EDGE_CURVE ( 'NONE', #276, #33, #89, .T. ) ;
#135 = VECTOR ( 'NONE', #58, 1000.000000000000000 ) ;
#136 = CARTESIAN_POINT ( 'NONE',  ( -6.017094017094014369, 1.592040838891559095E-15, -13.00000000000000000 ) ) ;
#137 = UNCERTAINTY_MEASURE_WITH_UNIT (LENGTH_MEASURE( 1.000000000000000082E-05 ), #302, 'distance_accuracy_value', 'NONE');
#138 = EDGE_LOOP ( 'NONE', ( #257, #57 ) ) ;
#139 = CARTESIAN_POINT ( 'NONE',  ( 0.0000000000000000000, 0.0000000000000000000, 0.0000000000000000000 ) ) ;
#140 = CARTESIAN_POINT ( 'NONE',  ( -46.22222222222222143, 0.0000000000000000000, 13.00000000000000000 ) ) ;
#141 = AXIS2_PLACEMENT_3D ( 'NONE', #1, #275, #222 ) ;
#142 = EDGE_CURVE ( 'NONE', #221, #5, #68, .T. ) ;
#143 = APPLICATION_CONTEXT ( 'automotive_design' ) ;
#144 = DIRECTION ( 'NONE',  ( -0.7071067811865463515, 8.659560562354948882E-17, -0.7071067811865487940 ) ) ;
#145 = DIRECTION ( 'NONE',  ( 0.0000000000000000000, 0.0000000000000000000, 1.000000000000000000 ) ) ;
#146 = ADVANCED_FACE ( 'NONE', ( #123 ), #20, .T. ) ;
#147 = CARTESIAN_POINT ( 'NONE',  ( 17.98290598290598652, 0.0000000000000000000, 0.0000000000000000000 ) ) ;
#148 = VERTEX_POINT ( 'NONE', #310 ) ;
#149 = CARTESIAN_POINT ( 'NONE',  ( -46.22222222222222143, 0.0000000000000000000, 0.0000000000000000000 ) ) ;
#150 = AXIS2_PLACEMENT_3D ( 'NONE', #147, #278, #130 ) ;
#151 = CARTESIAN_POINT ( 'NONE',  ( -5.517094017094013481, 0.0000000000000000000, 6.000000000000000000 ) ) ;
#152 = ORIENTED_EDGE ( 'NONE', *, *, #256, .F. ) ;
#153 = FACE_OUTER_BOUND ( 'NONE', #31, .T. ) ;
#154 = CARTESIAN_POINT ( 'NONE',  ( 17.98290598290598652, 1.592040838891559095E-15, -13.00000000000000000 ) ) ;
#155 = ORIENTED_EDGE ( 'NONE', *, *, #205, .T. ) ;
#156 = CONICAL_SURFACE ( 'NONE', #13, 6.000000000000000000, 0.7853981633974500554 ) ;
#157 = CARTESIAN_POINT ( 'NONE',  ( -5.517094017094013481, 7.347880794884119736E-16, -6.000000000000000000 ) ) ;
#158 = CIRCLE ( 'NONE', #277, 6.500000000000002665 ) ;
#159 = FACE_OUTER_BOUND ( 'NONE', #253, .T. ) ;
#160 = FACE_BOUND ( 'NONE', #10, .T. ) ;
#161 = PLANE ( 'NONE',  #69 ) ;
#162 = ORIENTED_EDGE ( 'NONE', *, *, #108, .T. ) ;
#163 = EDGE_CURVE ( 'NONE', #226, #39, #229, .T. ) ;
#164 = STYLED_ITEM ( 'NONE', ( #7 ), #71 ) ;
#165 = FACE_OUTER_BOUND ( 'NONE', #305, .T. ) ;
#166 = DIRECTION ( 'NONE',  ( 0.0000000000000000000, 0.0000000000000000000, 1.000000000000000000 ) ) ;
#167 = APPLICATION_PROTOCOL_DEFINITION ( 'draft international standard', 'automotive_design', 1998, #143 ) ;
#168 = ADVANCED_FACE ( 'NONE', ( #291 ), #244, .F. ) ;
#169 = AXIS2_PLACEMENT_3D ( 'NONE', #245, #132, #207 ) ;
#170 = CARTESIAN_POINT ( 'NONE',  ( 17.98290598290598652, 7.960204194457793505E-16, 6.499999999999998224 ) ) ;
#171 = ADVANCED_FACE ( 'NONE', ( #240 ), #293, .F. ) ;
#172 = CARTESIAN_POINT ( 'NONE',  ( -5.517094017094013481, 0.0000000000000000000, 0.0000000000000000000 ) ) ;
#173 = COLOUR_RGB ( '',0.7921568627450980005, 0.8196078431372548767, 0.9333333333333333481 ) ;
#174 = DIRECTION ( 'NONE',  ( 0.0000000000000000000, 0.0000000000000000000, 1.000000000000000000 ) ) ;
#175 = LINE ( 'NONE', #170, #83 ) ;
#176 = DIRECTION ( 'NONE',  ( -1.000000000000000000, -0.0000000000000000000, -0.0000000000000000000 ) ) ;
#177 = VECTOR ( 'NONE', #56, 1000.000000000000000 ) ;
#178 = CYLINDRICAL_SURFACE ( 'NONE', #314, 6.000000000000000000 ) ;
#179 = ORIENTED_EDGE ( 'NONE', *, *, #184, .F. ) ;
#180 = EDGE_LOOP ( 'NONE', ( #61, #179, #155, #129 ) ) ;
#181 = CIRCLE ( 'NONE', #90, 6.000000000000000000 ) ;
#182 = DIRECTION ( 'NONE',  ( 0.0000000000000000000, 0.0000000000000000000, 1.000000000000000000 ) ) ;
#183 = FACE_BOUND ( 'NONE', #3, .T. ) ;
#184 = EDGE_CURVE ( 'NONE', #33, #247, #52, .T. ) ;
#185 = ORIENTED_EDGE ( 'NONE', *, *, #134, .F. ) ;
#186 = ORIENTED_EDGE ( 'NONE', *, *, #18, .F. ) ;
#187 = LINE ( 'NONE', #217, #109 ) ;
#188 = EDGE_CURVE ( 'NONE', #148, #221, #288, .T. ) ;
#189 = EDGE_CURVE ( 'NONE', #276, #131, #190, .T. ) ;
#190 = CIRCLE ( 'NONE', #117, 6.000000000000000000 ) ;
#191 =( GEOMETRIC_REPRESENTATION_CONTEXT ( 3 ) GLOBAL_UNCERTAINTY_ASSIGNED_CONTEXT ( ( #137 ) ) GLOBAL_UNIT_ASSIGNED_CONTEXT ( ( #302, #230, #86 ) ) REPRESENTATION_CONTEXT ( 'NONE', 'WORKASPACE' ) );
#192 = CARTESIAN_POINT ( 'NONE',  ( 17.98290598290598652, 0.0000000000000000000, 0.0000000000000000000 ) ) ;
#193 = EDGE_CURVE ( 'NONE', #213, #107, #158, .T. ) ;
#194 = DIRECTION ( 'NONE',  ( 0.0000000000000000000, 0.0000000000000000000, -1.000000000000000000 ) ) ;
#195 = DIRECTION ( 'NONE',  ( 0.0000000000000000000, 0.0000000000000000000, -1.000000000000000000 ) ) ;
#196 = VECTOR ( 'NONE', #236, 1000.000000000000000 ) ;
#197 = VECTOR ( 'NONE', #214, 1000.000000000000000 ) ;
#198 = CYLINDRICAL_SURFACE ( 'NONE', #38, 13.00000000000000000 ) ;
#199 = ORIENTED_EDGE ( 'NONE', *, *, #27, .T. ) ;
#200 = PRESENTATION_STYLE_ASSIGNMENT (( #82 ) ) ;
#201 =( NAMED_UNIT ( * ) PLANE_ANGLE_UNIT ( ) SI_UNIT ( $, .RADIAN. ) );
#202 = ADVANCED_FACE ( 'NONE', ( #153 ), #239, .F. ) ;
#203 = AXIS2_PLACEMENT_3D ( 'NONE', #172, #47, #145 ) ;
#204 = CARTESIAN_POINT ( 'NONE',  ( 17.98290598290598652, 0.0000000000000000000, -6.499999999999998224 ) ) ;
#205 = EDGE_CURVE ( 'NONE', #33, #107, #63, .T. ) ;
#206 = CARTESIAN_POINT ( 'NONE',  ( -6.017094017094014369, 6.000000000000000000, 0.0000000000000000000 ) ) ;
#207 = DIRECTION ( 'NONE',  ( 0.0000000000000000000, 0.0000000000000000000, 1.000000000000000000 ) ) ;
#208 = ORIENTED_EDGE ( 'NONE', *, *, #75, .T. ) ;
#209 = MECHANICAL_DESIGN_GEOMETRIC_PRESENTATION_REPRESENTATION (  '', ( #223 ), #309 ) ;
#210 = ORIENTED_EDGE ( 'NONE', *, *, #50, .F. ) ;
#211 = PRODUCT_DEFINITION_SHAPE ( 'NONE', 'NONE',  #284 ) ;
#212 = ORIENTED_EDGE ( 'NONE', *, *, #42, .F. ) ;
#213 = VERTEX_POINT ( 'NONE', #297 ) ;
#214 = DIRECTION ( 'NONE',  ( -1.000000000000000000, -0.0000000000000000000, -0.0000000000000000000 ) ) ;
#215 = DIRECTION ( 'NONE',  ( -1.000000000000000000, -0.0000000000000000000, -0.0000000000000000000 ) ) ;
#216 = DIRECTION ( 'NONE',  ( 1.000000000000000000, -0.0000000000000000000, -0.0000000000000000000 ) ) ;
#217 = CARTESIAN_POINT ( 'NONE',  ( -46.22222222222222143, 7.347880794884119736E-16, -6.000000000000000000 ) ) ;
#218 = CARTESIAN_POINT ( 'NONE',  ( -5.517094017094013481, 0.0000000000000000000, 6.000000000000000000 ) ) ;
#219 = EDGE_LOOP ( 'NONE', ( #273, #152, #11, #303 ) ) ;
#220 = PRODUCT ( 'BRM 12x6', 'BRM 12x6', '', ( #308 ) ) ;
#221 = VERTEX_POINT ( 'NONE', #154 ) ;
#222 = DIRECTION ( 'NONE',  ( 0.0000000000000000000, 0.0000000000000000000, -1.000000000000000000 ) ) ;
#223 = STYLED_ITEM ( 'NONE', ( #200 ), #296 ) ;
#224 = ORIENTED_EDGE ( 'NONE', *, *, #50, .T. ) ;
#225 = FACE_OUTER_BOUND ( 'NONE', #67, .T. ) ;
#226 = VERTEX_POINT ( 'NONE', #204 ) ;
#227 = SURFACE_STYLE_FILL_AREA ( #232 ) ;
#228 = CARTESIAN_POINT ( 'NONE',  ( -6.017094017094014369, 0.0000000000000000000, 0.0000000000000000000 ) ) ;
#229 = CIRCLE ( 'NONE', #122, 6.499999999999998224 ) ;
#230 =( NAMED_UNIT ( * ) PLANE_ANGLE_UNIT ( ) SI_UNIT ( $, .RADIAN. ) );
#231 = CARTESIAN_POINT ( 'NONE',  ( 17.98290598290598652, 0.0000000000000000000, 0.0000000000000000000 ) ) ;
#232 = FILL_AREA_STYLE ('',( #113 ) ) ;
#233 = ADVANCED_FACE ( 'NONE', ( #225 ), #178, .F. ) ;
#234 = ORIENTED_EDGE ( 'NONE', *, *, #18, .T. ) ;
#235 = PRODUCT_DEFINITION_CONTEXT ( 'detailed design', #121, 'design' ) ;
#236 = DIRECTION ( 'NONE',  ( -1.000000000000000000, -0.0000000000000000000, -0.0000000000000000000 ) ) ;
#237 = AXIS2_PLACEMENT_3D ( 'NONE', #292, #265, #48 ) ;
#238 = CARTESIAN_POINT ( 'NONE',  ( -46.22222222222222143, 0.0000000000000000000, 6.000000000000000000 ) ) ;
#239 = CONICAL_SURFACE ( 'NONE', #141, 6.499999999999998224, 0.7853981633974457255 ) ;
#240 = FACE_OUTER_BOUND ( 'NONE', #219, .T. ) ;
#241 = CARTESIAN_POINT ( 'NONE',  ( 17.48290598290598652, 7.347880794884119736E-16, -6.000000000000000000 ) ) ;
#242 = DIRECTION ( 'NONE',  ( -1.000000000000000000, -0.0000000000000000000, -0.0000000000000000000 ) ) ;
#243 = CIRCLE ( 'NONE', #73, 13.00000000000000000 ) ;
#244 = CONICAL_SURFACE ( 'NONE', #203, 6.000000000000000000, 0.7853981633974500554 ) ;
#245 = CARTESIAN_POINT ( 'NONE',  ( -6.017094017094014369, 0.0000000000000000000, 0.0000000000000000000 ) ) ;
#246 = DIRECTION ( 'NONE',  ( 0.0000000000000000000, 0.0000000000000000000, 1.000000000000000000 ) ) ;
#247 = VERTEX_POINT ( 'NONE', #157 ) ;
#248 = ORIENTED_EDGE ( 'NONE', *, *, #88, .F. ) ;
#249 = AXIS2_PLACEMENT_3D ( 'NONE', #260, #312, #21 ) ;
#250 = DIRECTION ( 'NONE',  ( -0.0000000000000000000, 0.0000000000000000000, 1.000000000000000000 ) ) ;
#251 = ORIENTED_EDGE ( 'NONE', *, *, #163, .T. ) ;
#252 = DIRECTION ( 'NONE',  ( 1.000000000000000000, 0.0000000000000000000, 0.0000000000000000000 ) ) ;
#253 = EDGE_LOOP ( 'NONE', ( #105, #266, #186, #6 ) ) ;
#254 = ORIENTED_EDGE ( 'NONE', *, *, #163, .F. ) ;
#255 =( GEOMETRIC_REPRESENTATION_CONTEXT ( 3 ) GLOBAL_UNCERTAINTY_ASSIGNED_CONTEXT ( ( #62 ) ) GLOBAL_UNIT_ASSIGNED_CONTEXT ( ( #4, #282, #285 ) ) REPRESENTATION_CONTEXT ( 'NONE', 'WORKASPACE' ) );
#256 = EDGE_CURVE ( 'NONE', #131, #276, #181, .T. ) ;
#257 = ORIENTED_EDGE ( 'NONE', *, *, #188, .F. ) ;
#258 = SURFACE_SIDE_STYLE ('',( #227 ) ) ;
#259 = ADVANCED_FACE ( 'NONE', ( #160, #128 ), #127, .F. ) ;
#260 = CARTESIAN_POINT ( 'NONE',  ( -46.22222222222222143, 0.0000000000000000000, 0.0000000000000000000 ) ) ;
#261 = SHAPE_DEFINITION_REPRESENTATION ( #211, #71 ) ;
#262 = CARTESIAN_POINT ( 'NONE',  ( 17.98290598290598652, 0.0000000000000000000, 0.0000000000000000000 ) ) ;
#263 = DIRECTION ( 'NONE',  ( 0.0000000000000000000, 0.0000000000000000000, 1.000000000000000000 ) ) ;
#264 = VECTOR ( 'NONE', #242, 1000.000000000000000 ) ;
#265 = DIRECTION ( 'NONE',  ( -1.000000000000000000, 0.0000000000000000000, 0.0000000000000000000 ) ) ;
#266 = ORIENTED_EDGE ( 'NONE', *, *, #95, .T. ) ;
#267 = CARTESIAN_POINT ( 'NONE',  ( -46.22222222222222143, 0.0000000000000000000, 0.0000000000000000000 ) ) ;
#268 = ORIENTED_EDGE ( 'NONE', *, *, #304, .F. ) ;
#269 = CARTESIAN_POINT ( 'NONE',  ( -6.017094017094014369, 0.0000000000000000000, 0.0000000000000000000 ) ) ;
#270 = ORIENTED_EDGE ( 'NONE', *, *, #189, .F. ) ;
#271 = CARTESIAN_POINT ( 'NONE',  ( 17.48290598290598652, 0.0000000000000000000, 6.000000000000000000 ) ) ;
#272 = CARTESIAN_POINT ( 'NONE',  ( 17.98290598290598652, 0.0000000000000000000, -6.499999999999998224 ) ) ;
#273 = ORIENTED_EDGE ( 'NONE', *, *, #115, .F. ) ;
#274 = UNCERTAINTY_MEASURE_WITH_UNIT (LENGTH_MEASURE( 1.000000000000000082E-05 ), #2, 'distance_accuracy_value', 'NONE');
#275 = DIRECTION ( 'NONE',  ( 1.000000000000000000, -0.0000000000000000000, -0.0000000000000000000 ) ) ;
#276 = VERTEX_POINT ( 'NONE', #271 ) ;
#277 = AXIS2_PLACEMENT_3D ( 'NONE', #269, #252, #106 ) ;
#278 = DIRECTION ( 'NONE',  ( -1.000000000000000000, -0.0000000000000000000, -0.0000000000000000000 ) ) ;
#279 = CARTESIAN_POINT ( 'NONE',  ( -5.517094017094013481, 0.0000000000000000000, 0.0000000000000000000 ) ) ;
#280 = DIRECTION ( 'NONE',  ( 1.000000000000000000, 0.0000000000000000000, 0.0000000000000000000 ) ) ;
#281 = ORIENTED_EDGE ( 'NONE', *, *, #142, .T. ) ;
#282 =( NAMED_UNIT ( * ) PLANE_ANGLE_UNIT ( ) SI_UNIT ( $, .RADIAN. ) );
#283 = ORIENTED_EDGE ( 'NONE', *, *, #290, .F. ) ;
#284 = PRODUCT_DEFINITION ( 'UNKNOWN', '', #60, #235 ) ;
#285 =( NAMED_UNIT ( * ) SI_UNIT ( $, .STERADIAN. ) SOLID_ANGLE_UNIT ( ) );
#286 = CARTESIAN_POINT ( 'NONE',  ( -5.517094017094013481, 0.0000000000000000000, 0.0000000000000000000 ) ) ;
#287 = CIRCLE ( 'NONE', #30, 13.00000000000000000 ) ;
#288 = CIRCLE ( 'NONE', #150, 13.00000000000000000 ) ;
#289 = DIRECTION ( 'NONE',  ( 0.0000000000000000000, 0.0000000000000000000, 1.000000000000000000 ) ) ;
#290 = EDGE_CURVE ( 'NONE', #295, #5, #301, .T. ) ;
#291 = FACE_OUTER_BOUND ( 'NONE', #180, .T. ) ;
#292 = CARTESIAN_POINT ( 'NONE',  ( -5.517094017094013481, 0.0000000000000000000, 0.0000000000000000000 ) ) ;
#293 = CONICAL_SURFACE ( 'NONE', #97, 6.499999999999998224, 0.7853981633974457255 ) ;
#294 = DIRECTION ( 'NONE',  ( -1.000000000000000000, -0.0000000000000000000, -0.0000000000000000000 ) ) ;
#295 = VERTEX_POINT ( 'NONE', #102 ) ;
#296 = MANIFOLD_SOLID_BREP ( 'Chamfer1', #43 ) ;
#297 = CARTESIAN_POINT ( 'NONE',  ( -6.017094017094014369, 7.960204194457798435E-16, -6.500000000000002665 ) ) ;
#298 = DIRECTION ( 'NONE',  ( 0.0000000000000000000, 0.0000000000000000000, -1.000000000000000000 ) ) ;
#299 = FILL_AREA_STYLE ('',( #125 ) ) ;
#300 = ORIENTED_EDGE ( 'NONE', *, *, #115, .T. ) ;
#301 = CIRCLE ( 'NONE', #169, 13.00000000000000000 ) ;
#302 =( LENGTH_UNIT ( ) NAMED_UNIT ( * ) SI_UNIT ( .MILLI., .METRE. ) );
#303 = ORIENTED_EDGE ( 'NONE', *, *, #75, .F. ) ;
#304 = EDGE_CURVE ( 'NONE', #131, #226, #79, .T. ) ;
#305 = EDGE_LOOP ( 'NONE', ( #64, #224 ) ) ;
#306 = ORIENTED_EDGE ( 'NONE', *, *, #134, .T. ) ;
#307 = AXIS2_PLACEMENT_3D ( 'NONE', #267, #15, #174 ) ;
#308 = PRODUCT_CONTEXT ( 'NONE', #143, 'mechanical' ) ;
#309 =( GEOMETRIC_REPRESENTATION_CONTEXT ( 3 ) GLOBAL_UNCERTAINTY_ASSIGNED_CONTEXT ( ( #274 ) ) GLOBAL_UNIT_ASSIGNED_CONTEXT ( ( #2, #201, #28 ) ) REPRESENTATION_CONTEXT ( 'NONE', 'WORKASPACE' ) );
#310 = CARTESIAN_POINT ( 'NONE',  ( 17.98290598290598652, 0.0000000000000000000, 13.00000000000000000 ) ) ;
#311 = FACE_OUTER_BOUND ( 'NONE', #85, .T. ) ;
#312 = DIRECTION ( 'NONE',  ( -1.000000000000000000, -0.0000000000000000000, -0.0000000000000000000 ) ) ;
#313 = CYLINDRICAL_SURFACE ( 'NONE', #249, 6.000000000000000000 ) ;
#314 = AXIS2_PLACEMENT_3D ( 'NONE', #99, #176, #54 ) ;
ENDSEC;
END-ISO-10303-21;
