ISO-10303-21;
HEADER;
FILE_DESCRIPTION (( 'STEP AP214' ),
    '1' );
FILE_NAME ('BRM 44x7.step',
    '2020-09-08T10:23:59',
    ( '' ),
    ( '' ),
    'SwSTEP 2.0',
    'SolidWorks 2020',
    '' );
FILE_SCHEMA (( 'AUTOMOTIVE_DESIGN' ));
ENDSEC;

DATA;
#1 = ORIENTED_EDGE ( 'NONE', *, *, #63, .F. ) ;
#2 = FILL_AREA_STYLE ('',( #302 ) ) ;
#3 = ORIENTED_EDGE ( 'NONE', *, *, #248, .T. ) ;
#4 = ORIENTED_EDGE ( 'NONE', *, *, #13, .T. ) ;
#5 = CARTESIAN_POINT ( 'NONE',  ( 81.98290598290597586, 4.898587196589413026E-15, -40.00000000000000000 ) ) ;
#6 = FACE_OUTER_BOUND ( 'NONE', #242, .T. ) ;
#7 = LINE ( 'NONE', #204, #186 ) ;
#8 = ADVANCED_FACE ( 'NONE', ( #146 ), #91, .F. ) ;
#9 = DIRECTION ( 'NONE',  ( 0.0000000000000000000, 0.0000000000000000000, 1.000000000000000000 ) ) ;
#10 = PRODUCT_DEFINITION_CONTEXT ( 'detailed design', #233, 'design' ) ;
#11 = DIRECTION ( 'NONE',  ( 0.0000000000000000000, 0.0000000000000000000, 1.000000000000000000 ) ) ;
#12 = PLANE ( 'NONE',  #279 ) ;
#13 = EDGE_CURVE ( 'NONE', #73, #272, #245, .T. ) ;
#14 = DIRECTION ( 'NONE',  ( -1.000000000000000000, -0.0000000000000000000, -0.0000000000000000000 ) ) ;
#15 = CARTESIAN_POINT ( 'NONE',  ( 81.98290598290597586, 40.00000000000000000, 0.0000000000000000000 ) ) ;
#16 = AXIS2_PLACEMENT_3D ( 'NONE', #234, #213, #135 ) ;
#17 = LINE ( 'NONE', #112, #295 ) ;
#18 = AXIS2_PLACEMENT_3D ( 'NONE', #68, #108, #309 ) ;
#19 = ORIENTED_EDGE ( 'NONE', *, *, #210, .T. ) ;
#20 = APPLICATION_PROTOCOL_DEFINITION ( 'draft international standard', 'automotive_design', 1998, #117 ) ;
#21 = ORIENTED_EDGE ( 'NONE', *, *, #106, .F. ) ;
#22 = ORIENTED_EDGE ( 'NONE', *, *, #93, .T. ) ;
#23 = EDGE_LOOP ( 'NONE', ( #100, #131, #165, #72 ) ) ;
#24 = DIRECTION ( 'NONE',  ( 1.000000000000000000, 0.0000000000000000000, 0.0000000000000000000 ) ) ;
#25 = EDGE_LOOP ( 'NONE', ( #121, #144 ) ) ;
#26 = AXIS2_PLACEMENT_3D ( 'NONE', #283, #185, #286 ) ;
#27 = CARTESIAN_POINT ( 'NONE',  ( -5.517094017093985947, 0.0000000000000000000, 22.00000000000000000 ) ) ;
#28 = DIRECTION ( 'NONE',  ( 0.0000000000000000000, 0.0000000000000000000, 1.000000000000000000 ) ) ;
#29 = FACE_BOUND ( 'NONE', #25, .T. ) ;
#30 = ORIENTED_EDGE ( 'NONE', *, *, #93, .F. ) ;
#31 = ORIENTED_EDGE ( 'NONE', *, *, #297, .F. ) ;
#32 = CIRCLE ( 'NONE', #229, 40.00000000000000000 ) ;
#33 = EDGE_CURVE ( 'NONE', #113, #74, #208, .T. ) ;
#34 = AXIS2_PLACEMENT_3D ( 'NONE', #133, #207, #312 ) ;
#35 = PLANE ( 'NONE',  #34 ) ;
#36 = LINE ( 'NONE', #58, #167 ) ;
#37 = DIRECTION ( 'NONE',  ( 1.000000000000000000, 0.0000000000000000000, 0.0000000000000000000 ) ) ;
#38 = FACE_BOUND ( 'NONE', #84, .T. ) ;
#39 = AXIS2_PLACEMENT_3D ( 'NONE', #188, #236, #287 ) ;
#40 = CYLINDRICAL_SURFACE ( 'NONE', #47, 40.00000000000000000 ) ;
#41 = CARTESIAN_POINT ( 'NONE',  ( -46.22222222222222143, 4.898587196589413026E-15, -40.00000000000000000 ) ) ;
#42 = COLOUR_RGB ( '',0.7921568627450980005, 0.8196078431372548767, 0.9333333333333333481 ) ;
#43 = SURFACE_STYLE_FILL_AREA ( #104 ) ;
#44 =( LENGTH_UNIT ( ) NAMED_UNIT ( * ) SI_UNIT ( .MILLI., .METRE. ) );
#45 = ORIENTED_EDGE ( 'NONE', *, *, #216, .T. ) ;
#46 = EDGE_CURVE ( 'NONE', #289, #270, #254, .T. ) ;
#47 = AXIS2_PLACEMENT_3D ( 'NONE', #264, #14, #305 ) ;
#48 = ORIENTED_EDGE ( 'NONE', *, *, #46, .T. ) ;
#49 = DIRECTION ( 'NONE',  ( -1.000000000000000000, -0.0000000000000000000, -0.0000000000000000000 ) ) ;
#50 = FACE_OUTER_BOUND ( 'NONE', #169, .T. ) ;
#51 = DIRECTION ( 'NONE',  ( -0.7071067811865426878, 0.0000000000000000000, 0.7071067811865524577 ) ) ;
#52 = CIRCLE ( 'NONE', #187, 40.00000000000000000 ) ;
#53 = CARTESIAN_POINT ( 'NONE',  ( 81.48290598290597586, 0.0000000000000000000, 22.00000000000000000 ) ) ;
#54 = ORIENTED_EDGE ( 'NONE', *, *, #33, .F. ) ;
#55 = DIRECTION ( 'NONE',  ( -1.000000000000000000, -0.0000000000000000000, -0.0000000000000000000 ) ) ;
#56 = ADVANCED_FACE ( 'NONE', ( #50 ), #129, .F. ) ;
#57 = DIRECTION ( 'NONE',  ( 0.0000000000000000000, 0.0000000000000000000, -1.000000000000000000 ) ) ;
#58 = CARTESIAN_POINT ( 'NONE',  ( -46.22222222222222143, 0.0000000000000000000, 40.00000000000000000 ) ) ;
#59 = AXIS2_PLACEMENT_3D ( 'NONE', #124, #55, #152 ) ;
#60 = STYLED_ITEM ( 'NONE', ( #263 ), #223 ) ;
#61 = SURFACE_SIDE_STYLE ('',( #43 ) ) ;
#62 = CARTESIAN_POINT ( 'NONE',  ( -6.017094017094014369, 0.0000000000000000000, 0.0000000000000000000 ) ) ;
#63 = EDGE_CURVE ( 'NONE', #103, #69, #290, .T. ) ;
#64 = DIRECTION ( 'NONE',  ( -0.7071067811865426878, 8.659560562354994488E-17, -0.7071067811865524577 ) ) ;
#65 =( NAMED_UNIT ( * ) PLANE_ANGLE_UNIT ( ) SI_UNIT ( $, .RADIAN. ) );
#66 = FACE_OUTER_BOUND ( 'NONE', #23, .T. ) ;
#67 = CARTESIAN_POINT ( 'NONE',  ( -6.017094017094014369, 0.0000000000000000000, 22.50000000000003553 ) ) ;
#68 = CARTESIAN_POINT ( 'NONE',  ( 81.48290598290597586, 0.0000000000000000000, 0.0000000000000000000 ) ) ;
#69 = VERTEX_POINT ( 'NONE', #5 ) ;
#70 = AXIS2_PLACEMENT_3D ( 'NONE', #89, #162, #159 ) ;
#71 = EDGE_CURVE ( 'NONE', #69, #103, #32, .T. ) ;
#72 = ORIENTED_EDGE ( 'NONE', *, *, #13, .F. ) ;
#73 = VERTEX_POINT ( 'NONE', #128 ) ;
#74 = VERTEX_POINT ( 'NONE', #230 ) ;
#75 = AXIS2_PLACEMENT_3D ( 'NONE', #87, #181, #190 ) ;
#76 = ORIENTED_EDGE ( 'NONE', *, *, #77, .F. ) ;
#77 = EDGE_CURVE ( 'NONE', #270, #231, #7, .T. ) ;
#78 = CARTESIAN_POINT ( 'NONE',  ( -5.517094017093985947, 0.0000000000000000000, 0.0000000000000000000 ) ) ;
#79 = CARTESIAN_POINT ( 'NONE',  ( -6.017094017094014369, 0.0000000000000000000, 0.0000000000000000000 ) ) ;
#80 = CARTESIAN_POINT ( 'NONE',  ( -46.22222222222222143, 0.0000000000000000000, 22.00000000000000000 ) ) ;
#81 = ORIENTED_EDGE ( 'NONE', *, *, #210, .F. ) ;
#82 =( NAMED_UNIT ( * ) SI_UNIT ( $, .STERADIAN. ) SOLID_ANGLE_UNIT ( ) );
#83 = LINE ( 'NONE', #149, #154 ) ;
#84 = EDGE_LOOP ( 'NONE', ( #196, #194 ) ) ;
#85 = CIRCLE ( 'NONE', #191, 22.50000000000000711 ) ;
#86 = CONICAL_SURFACE ( 'NONE', #70, 22.50000000000000711, 0.7853981633974552734 ) ;
#87 = CARTESIAN_POINT ( 'NONE',  ( 0.0000000000000000000, 0.0000000000000000000, 0.0000000000000000000 ) ) ;
#88 = FACE_OUTER_BOUND ( 'NONE', #227, .T. ) ;
#89 = CARTESIAN_POINT ( 'NONE',  ( 81.98290598290597586, 0.0000000000000000000, 0.0000000000000000000 ) ) ;
#90 = DIRECTION ( 'NONE',  ( 0.7071067811865426878, 0.0000000000000000000, -0.7071067811865524577 ) ) ;
#91 = CONICAL_SURFACE ( 'NONE', #214, 22.00000000000000000, 0.7853981633974552734 ) ;
#92 = DIRECTION ( 'NONE',  ( 0.0000000000000000000, 0.0000000000000000000, -1.000000000000000000 ) ) ;
#93 = EDGE_CURVE ( 'NONE', #192, #141, #83, .T. ) ;
#94 = ORIENTED_EDGE ( 'NONE', *, *, #172, .T. ) ;
#95 = AXIS2_PLACEMENT_3D ( 'NONE', #151, #98, #296 ) ;
#96 = ORIENTED_EDGE ( 'NONE', *, *, #134, .T. ) ;
#97 =( GEOMETRIC_REPRESENTATION_CONTEXT ( 3 ) GLOBAL_UNCERTAINTY_ASSIGNED_CONTEXT ( ( #132 ) ) GLOBAL_UNIT_ASSIGNED_CONTEXT ( ( #163, #65, #143 ) ) REPRESENTATION_CONTEXT ( 'NONE', 'WORKASPACE' ) );
#98 = DIRECTION ( 'NONE',  ( -1.000000000000000000, -0.0000000000000000000, -0.0000000000000000000 ) ) ;
#99 = CARTESIAN_POINT ( 'NONE',  ( 81.98290598290597586, 0.0000000000000000000, 0.0000000000000000000 ) ) ;
#100 = ORIENTED_EDGE ( 'NONE', *, *, #248, .F. ) ;
#101 = CIRCLE ( 'NONE', #147, 22.50000000000003553 ) ;
#102 = DIRECTION ( 'NONE',  ( -1.000000000000000000, 0.0000000000000000000, 0.0000000000000000000 ) ) ;
#103 = VERTEX_POINT ( 'NONE', #253 ) ;
#104 = FILL_AREA_STYLE ('',( #261 ) ) ;
#105 = FACE_OUTER_BOUND ( 'NONE', #299, .T. ) ;
#106 = EDGE_CURVE ( 'NONE', #103, #272, #36, .T. ) ;
#107 = CARTESIAN_POINT ( 'NONE',  ( -5.517094017093985947, 2.694222958124176809E-15, -22.00000000000000000 ) ) ;
#108 = DIRECTION ( 'NONE',  ( 1.000000000000000000, -0.0000000000000000000, -0.0000000000000000000 ) ) ;
#109 = CYLINDRICAL_SURFACE ( 'NONE', #306, 22.00000000000000000 ) ;
#110 = PRODUCT_DEFINITION_SHAPE ( 'NONE', 'NONE',  #293 ) ;
#111 = VECTOR ( 'NONE', #140, 1000.000000000000000 ) ;
#112 = CARTESIAN_POINT ( 'NONE',  ( 81.98290598290597586, 2.755455298081545567E-15, 22.50000000000000711 ) ) ;
#113 = VERTEX_POINT ( 'NONE', #278 ) ;
#114 = EDGE_CURVE ( 'NONE', #74, #113, #85, .T. ) ;
#115 = ORIENTED_EDGE ( 'NONE', *, *, #114, .F. ) ;
#116 = EDGE_LOOP ( 'NONE', ( #30, #221, #48, #218 ) ) ;
#117 = APPLICATION_CONTEXT ( 'automotive_design' ) ;
#118 = ORIENTED_EDGE ( 'NONE', *, *, #216, .F. ) ;
#119 =( NAMED_UNIT ( * ) PLANE_ANGLE_UNIT ( ) SI_UNIT ( $, .RADIAN. ) );
#120 = CIRCLE ( 'NONE', #16, 22.00000000000000000 ) ;
#121 = ORIENTED_EDGE ( 'NONE', *, *, #125, .T. ) ;
#122 = AXIS2_PLACEMENT_3D ( 'NONE', #138, #238, #232 ) ;
#123 = CARTESIAN_POINT ( 'NONE',  ( -6.017094017094014369, 0.0000000000000000000, 0.0000000000000000000 ) ) ;
#124 = CARTESIAN_POINT ( 'NONE',  ( -6.017094017094014369, 0.0000000000000000000, 0.0000000000000000000 ) ) ;
#125 = EDGE_CURVE ( 'NONE', #231, #228, #101, .T. ) ;
#126 = EDGE_LOOP ( 'NONE', ( #81, #96, #247, #76 ) ) ;
#127 = SURFACE_STYLE_USAGE ( .BOTH. , #170 ) ;
#128 = CARTESIAN_POINT ( 'NONE',  ( -6.017094017094014369, 4.898587196589413026E-15, -40.00000000000000000 ) ) ;
#129 = CONICAL_SURFACE ( 'NONE', #294, 22.00000000000000000, 0.7853981633974552734 ) ;
#130 = CIRCLE ( 'NONE', #18, 22.00000000000000000 ) ;
#131 = ORIENTED_EDGE ( 'NONE', *, *, #71, .T. ) ;
#132 = UNCERTAINTY_MEASURE_WITH_UNIT (LENGTH_MEASURE( 1.000000000000000082E-05 ), #163, 'distance_accuracy_value', 'NONE');
#133 = CARTESIAN_POINT ( 'NONE',  ( -6.017094017094014369, 22.00000000000000000, 0.0000000000000000000 ) ) ;
#134 = EDGE_CURVE ( 'NONE', #141, #228, #266, .T. ) ;
#135 = DIRECTION ( 'NONE',  ( 0.0000000000000000000, 0.0000000000000000000, 1.000000000000000000 ) ) ;
#136 = DIRECTION ( 'NONE',  ( -1.000000000000000000, -0.0000000000000000000, -0.0000000000000000000 ) ) ;
#137 = CONICAL_SURFACE ( 'NONE', #201, 22.50000000000000711, 0.7853981633974552734 ) ;
#138 = CARTESIAN_POINT ( 'NONE',  ( -46.22222222222222143, 0.0000000000000000000, 0.0000000000000000000 ) ) ;
#139 = FACE_OUTER_BOUND ( 'NONE', #178, .T. ) ;
#140 = DIRECTION ( 'NONE',  ( -1.000000000000000000, -0.0000000000000000000, -0.0000000000000000000 ) ) ;
#141 = VERTEX_POINT ( 'NONE', #107 ) ;
#142 = ORIENTED_EDGE ( 'NONE', *, *, #271, .F. ) ;
#143 =( NAMED_UNIT ( * ) SI_UNIT ( $, .STERADIAN. ) SOLID_ANGLE_UNIT ( ) );
#144 = ORIENTED_EDGE ( 'NONE', *, *, #297, .T. ) ;
#145 = DIRECTION ( 'NONE',  ( -1.000000000000000000, 0.0000000000000000000, 0.0000000000000000000 ) ) ;
#146 = FACE_OUTER_BOUND ( 'NONE', #126, .T. ) ;
#147 = AXIS2_PLACEMENT_3D ( 'NONE', #62, #37, #92 ) ;
#148 = ADVANCED_FACE ( 'NONE', ( #66 ), #40, .T. ) ;
#149 = CARTESIAN_POINT ( 'NONE',  ( -46.22222222222222143, 2.694222958124176809E-15, -22.00000000000000000 ) ) ;
#150 = CIRCLE ( 'NONE', #39, 22.00000000000000000 ) ;
#151 = CARTESIAN_POINT ( 'NONE',  ( 81.98290598290597586, 0.0000000000000000000, 0.0000000000000000000 ) ) ;
#152 = DIRECTION ( 'NONE',  ( 0.0000000000000000000, 0.0000000000000000000, 1.000000000000000000 ) ) ;
#153 = DIRECTION ( 'NONE',  ( -1.000000000000000000, -0.0000000000000000000, -0.0000000000000000000 ) ) ;
#154 = VECTOR ( 'NONE', #153, 1000.000000000000000 ) ;
#155 = AXIS2_PLACEMENT_3D ( 'NONE', #79, #24, #174 ) ;
#156 = LINE ( 'NONE', #41, #111 ) ;
#157 =( NAMED_UNIT ( * ) SI_UNIT ( $, .STERADIAN. ) SOLID_ANGLE_UNIT ( ) );
#158 = SHAPE_DEFINITION_REPRESENTATION ( #110, #223 ) ;
#159 = DIRECTION ( 'NONE',  ( 0.0000000000000000000, 0.0000000000000000000, -1.000000000000000000 ) ) ;
#160 = EDGE_CURVE ( 'NONE', #192, #289, #120, .T. ) ;
#161 = FACE_OUTER_BOUND ( 'NONE', #116, .T. ) ;
#162 = DIRECTION ( 'NONE',  ( 1.000000000000000000, -0.0000000000000000000, -0.0000000000000000000 ) ) ;
#163 =( LENGTH_UNIT ( ) NAMED_UNIT ( * ) SI_UNIT ( .MILLI., .METRE. ) );
#164 = STYLED_ITEM ( 'NONE', ( #177 ), #268 ) ;
#165 = ORIENTED_EDGE ( 'NONE', *, *, #106, .T. ) ;
#166 = ADVANCED_FACE ( 'NONE', ( #38, #105 ), #12, .F. ) ;
#167 = VECTOR ( 'NONE', #180, 1000.000000000000000 ) ;
#168 = PRESENTATION_LAYER_ASSIGNMENT (  '', '', ( #60 ) ) ;
#169 = EDGE_LOOP ( 'NONE', ( #301, #300, #198, #31 ) ) ;
#170 = SURFACE_SIDE_STYLE ('',( #197 ) ) ;
#171 = ORIENTED_EDGE ( 'NONE', *, *, #271, .T. ) ;
#172 = EDGE_CURVE ( 'NONE', #192, #74, #212, .T. ) ;
#173 = CARTESIAN_POINT ( 'NONE',  ( 81.98290598290597586, 0.0000000000000000000, 0.0000000000000000000 ) ) ;
#174 = DIRECTION ( 'NONE',  ( 0.0000000000000000000, 0.0000000000000000000, -1.000000000000000000 ) ) ;
#175 = DIRECTION ( 'NONE',  ( -1.000000000000000000, 0.0000000000000000000, 0.0000000000000000000 ) ) ;
#176 = PRODUCT_DEFINITION_FORMATION_WITH_SPECIFIED_SOURCE ( 'ANY', '', #241, .NOT_KNOWN. ) ;
#177 = PRESENTATION_STYLE_ASSIGNMENT (( #127 ) ) ;
#178 = EDGE_LOOP ( 'NONE', ( #246, #200, #94, #54 ) ) ;
#179 = DIRECTION ( 'NONE',  ( 0.0000000000000000000, 0.0000000000000000000, -1.000000000000000000 ) ) ;
#180 = DIRECTION ( 'NONE',  ( -1.000000000000000000, -0.0000000000000000000, -0.0000000000000000000 ) ) ;
#181 = DIRECTION ( 'NONE',  ( 0.0000000000000000000, 0.0000000000000000000, 1.000000000000000000 ) ) ;
#182 = CARTESIAN_POINT ( 'NONE',  ( -6.017094017094014369, 2.755455298081549117E-15, -22.50000000000003553 ) ) ;
#183 = CYLINDRICAL_SURFACE ( 'NONE', #26, 40.00000000000000000 ) ;
#184 = CARTESIAN_POINT ( 'NONE',  ( 81.48290598290597586, 2.694222958124176809E-15, -22.00000000000000000 ) ) ;
#185 = DIRECTION ( 'NONE',  ( -1.000000000000000000, -0.0000000000000000000, -0.0000000000000000000 ) ) ;
#186 = VECTOR ( 'NONE', #51, 1000.000000000000000 ) ;
#187 = AXIS2_PLACEMENT_3D ( 'NONE', #123, #49, #199 ) ;
#188 = CARTESIAN_POINT ( 'NONE',  ( -5.517094017093985947, 0.0000000000000000000, 0.0000000000000000000 ) ) ;
#189 = ADVANCED_FACE ( 'NONE', ( #139 ), #86, .F. ) ;
#190 = DIRECTION ( 'NONE',  ( 1.000000000000000000, 0.0000000000000000000, 0.0000000000000000000 ) ) ;
#191 = AXIS2_PLACEMENT_3D ( 'NONE', #259, #136, #11 ) ;
#192 = VERTEX_POINT ( 'NONE', #184 ) ;
#193 = ORIENTED_EDGE ( 'NONE', *, *, #71, .F. ) ;
#194 = ORIENTED_EDGE ( 'NONE', *, *, #33, .T. ) ;
#195 =( LENGTH_UNIT ( ) NAMED_UNIT ( * ) SI_UNIT ( .MILLI., .METRE. ) );
#196 = ORIENTED_EDGE ( 'NONE', *, *, #114, .T. ) ;
#197 = SURFACE_STYLE_FILL_AREA ( #2 ) ;
#198 = ORIENTED_EDGE ( 'NONE', *, *, #77, .T. ) ;
#199 = DIRECTION ( 'NONE',  ( 0.0000000000000000000, 0.0000000000000000000, 1.000000000000000000 ) ) ;
#200 = ORIENTED_EDGE ( 'NONE', *, *, #160, .F. ) ;
#201 = AXIS2_PLACEMENT_3D ( 'NONE', #202, #298, #57 ) ;
#202 = CARTESIAN_POINT ( 'NONE',  ( 81.98290598290597586, 0.0000000000000000000, 0.0000000000000000000 ) ) ;
#203 = ADVANCED_FACE ( 'NONE', ( #281 ), #284, .F. ) ;
#204 = CARTESIAN_POINT ( 'NONE',  ( -5.517094017093985947, 0.0000000000000000000, 22.00000000000000000 ) ) ;
#205 = DIRECTION ( 'NONE',  ( -1.000000000000000000, -0.0000000000000000000, -0.0000000000000000000 ) ) ;
#206 = UNCERTAINTY_MEASURE_WITH_UNIT (LENGTH_MEASURE( 1.000000000000000082E-05 ), #44, 'distance_accuracy_value', 'NONE');
#207 = DIRECTION ( 'NONE',  ( 1.000000000000000000, 0.0000000000000000000, 0.0000000000000000000 ) ) ;
#208 = CIRCLE ( 'NONE', #239, 22.50000000000000711 ) ;
#209 = MECHANICAL_DESIGN_GEOMETRIC_PRESENTATION_REPRESENTATION (  '', ( #164 ), #220 ) ;
#210 = EDGE_CURVE ( 'NONE', #141, #270, #150, .T. ) ;
#211 = CARTESIAN_POINT ( 'NONE',  ( 81.98290598290597586, 0.0000000000000000000, -22.50000000000000711 ) ) ;
#212 = LINE ( 'NONE', #211, #303 ) ;
#213 = DIRECTION ( 'NONE',  ( 1.000000000000000000, -0.0000000000000000000, -0.0000000000000000000 ) ) ;
#214 = AXIS2_PLACEMENT_3D ( 'NONE', #277, #102, #28 ) ;
#215 = DIRECTION ( 'NONE',  ( -1.000000000000000000, -0.0000000000000000000, -0.0000000000000000000 ) ) ;
#216 = EDGE_CURVE ( 'NONE', #289, #192, #130, .T. ) ;
#217 = PRODUCT_CONTEXT ( 'NONE', #117, 'mechanical' ) ;
#218 = ORIENTED_EDGE ( 'NONE', *, *, #275, .T. ) ;
#219 = EDGE_LOOP ( 'NONE', ( #45, #22, #19, #314 ) ) ;
#220 =( GEOMETRIC_REPRESENTATION_CONTEXT ( 3 ) GLOBAL_UNCERTAINTY_ASSIGNED_CONTEXT ( ( #260 ) ) GLOBAL_UNIT_ASSIGNED_CONTEXT ( ( #195, #119, #82 ) ) REPRESENTATION_CONTEXT ( 'NONE', 'WORKASPACE' ) );
#221 = ORIENTED_EDGE ( 'NONE', *, *, #160, .T. ) ;
#222 = ORIENTED_EDGE ( 'NONE', *, *, #255, .T. ) ;
#223 = ADVANCED_BREP_SHAPE_REPRESENTATION ( 'BRM 44x7', ( #268, #75 ), #313 ) ;
#224 = DIRECTION ( 'NONE',  ( 0.0000000000000000000, 0.0000000000000000000, 1.000000000000000000 ) ) ;
#225 = ADVANCED_FACE ( 'NONE', ( #88 ), #183, .T. ) ;
#226 = CARTESIAN_POINT ( 'NONE',  ( -6.017094017094014369, 0.0000000000000000000, 40.00000000000000000 ) ) ;
#227 = EDGE_LOOP ( 'NONE', ( #292, #3, #142, #21 ) ) ;
#228 = VERTEX_POINT ( 'NONE', #182 ) ;
#229 = AXIS2_PLACEMENT_3D ( 'NONE', #173, #273, #256 ) ;
#230 = CARTESIAN_POINT ( 'NONE',  ( 81.98290598290597586, 0.0000000000000000000, -22.50000000000000711 ) ) ;
#231 = VERTEX_POINT ( 'NONE', #67 ) ;
#232 = DIRECTION ( 'NONE',  ( 0.0000000000000000000, 0.0000000000000000000, 1.000000000000000000 ) ) ;
#233 = APPLICATION_CONTEXT ( 'automotive_design' ) ;
#234 = CARTESIAN_POINT ( 'NONE',  ( 81.48290598290597586, 0.0000000000000000000, 0.0000000000000000000 ) ) ;
#235 = CIRCLE ( 'NONE', #155, 22.50000000000003553 ) ;
#236 = DIRECTION ( 'NONE',  ( -1.000000000000000000, 0.0000000000000000000, 0.0000000000000000000 ) ) ;
#237 = ADVANCED_FACE ( 'NONE', ( #161 ), #109, .F. ) ;
#238 = DIRECTION ( 'NONE',  ( -1.000000000000000000, -0.0000000000000000000, -0.0000000000000000000 ) ) ;
#239 = AXIS2_PLACEMENT_3D ( 'NONE', #99, #205, #9 ) ;
#240 = MECHANICAL_DESIGN_GEOMETRIC_PRESENTATION_REPRESENTATION (  '', ( #60 ), #97 ) ;
#241 = PRODUCT ( 'BRM 44x7', 'BRM 44x7', '', ( #217 ) ) ;
#242 = EDGE_LOOP ( 'NONE', ( #118, #222, #115, #276 ) ) ;
#243 = PRODUCT_RELATED_PRODUCT_CATEGORY ( 'part', '', ( #241 ) ) ;
#244 = EDGE_LOOP ( 'NONE', ( #171, #4 ) ) ;
#245 = CIRCLE ( 'NONE', #59, 40.00000000000000000 ) ;
#246 = ORIENTED_EDGE ( 'NONE', *, *, #255, .F. ) ;
#247 = ORIENTED_EDGE ( 'NONE', *, *, #125, .F. ) ;
#248 = EDGE_CURVE ( 'NONE', #69, #73, #156, .T. ) ;
#249 = CARTESIAN_POINT ( 'NONE',  ( -5.517094017093985947, 0.0000000000000000000, 0.0000000000000000000 ) ) ;
#250 = DIRECTION ( 'NONE',  ( -1.000000000000000000, -0.0000000000000000000, -0.0000000000000000000 ) ) ;
#251 = VECTOR ( 'NONE', #250, 1000.000000000000000 ) ;
#252 = PRESENTATION_LAYER_ASSIGNMENT (  '', '', ( #164 ) ) ;
#253 = CARTESIAN_POINT ( 'NONE',  ( 81.98290598290597586, 0.0000000000000000000, 40.00000000000000000 ) ) ;
#254 = LINE ( 'NONE', #80, #251 ) ;
#255 = EDGE_CURVE ( 'NONE', #289, #113, #17, .T. ) ;
#256 = DIRECTION ( 'NONE',  ( 0.0000000000000000000, 0.0000000000000000000, 1.000000000000000000 ) ) ;
#257 = CLOSED_SHELL ( 'NONE', ( #282, #8, #203, #225, #308, #148, #166, #237, #56, #189 ) ) ;
#258 = FACE_OUTER_BOUND ( 'NONE', #244, .T. ) ;
#259 = CARTESIAN_POINT ( 'NONE',  ( 81.98290598290597586, 0.0000000000000000000, 0.0000000000000000000 ) ) ;
#260 = UNCERTAINTY_MEASURE_WITH_UNIT (LENGTH_MEASURE( 1.000000000000000082E-05 ), #195, 'distance_accuracy_value', 'NONE');
#261 = FILL_AREA_STYLE_COLOUR ( '', #42 ) ;
#262 = DIRECTION ( 'NONE',  ( -0.0000000000000000000, 0.0000000000000000000, 1.000000000000000000 ) ) ;
#263 = PRESENTATION_STYLE_ASSIGNMENT (( #304 ) ) ;
#264 = CARTESIAN_POINT ( 'NONE',  ( -46.22222222222222143, 0.0000000000000000000, 0.0000000000000000000 ) ) ;
#265 = CARTESIAN_POINT ( 'NONE',  ( -5.517094017093985947, 2.694222958124176809E-15, -22.00000000000000000 ) ) ;
#266 = LINE ( 'NONE', #265, #285 ) ;
#267 = DIRECTION ( 'NONE',  ( 0.0000000000000000000, 0.0000000000000000000, 1.000000000000000000 ) ) ;
#268 = MANIFOLD_SOLID_BREP ( 'Chamfer1', #257 ) ;
#269 = COLOUR_RGB ( '',0.7921568627450980005, 0.8196078431372548767, 0.9333333333333333481 ) ;
#270 = VERTEX_POINT ( 'NONE', #27 ) ;
#271 = EDGE_CURVE ( 'NONE', #272, #73, #52, .T. ) ;
#272 = VERTEX_POINT ( 'NONE', #226 ) ;
#273 = DIRECTION ( 'NONE',  ( -1.000000000000000000, -0.0000000000000000000, -0.0000000000000000000 ) ) ;
#274 = CIRCLE ( 'NONE', #291, 22.00000000000000000 ) ;
#275 = EDGE_CURVE ( 'NONE', #270, #141, #274, .T. ) ;
#276 = ORIENTED_EDGE ( 'NONE', *, *, #172, .F. ) ;
#277 = CARTESIAN_POINT ( 'NONE',  ( -5.517094017093985947, 0.0000000000000000000, 0.0000000000000000000 ) ) ;
#278 = CARTESIAN_POINT ( 'NONE',  ( 81.98290598290597586, 2.755455298081545567E-15, 22.50000000000000711 ) ) ;
#279 = AXIS2_PLACEMENT_3D ( 'NONE', #15, #307, #262 ) ;
#280 =( NAMED_UNIT ( * ) PLANE_ANGLE_UNIT ( ) SI_UNIT ( $, .RADIAN. ) );
#281 = FACE_OUTER_BOUND ( 'NONE', #219, .T. ) ;
#282 = ADVANCED_FACE ( 'NONE', ( #6 ), #137, .F. ) ;
#283 = CARTESIAN_POINT ( 'NONE',  ( -46.22222222222222143, 0.0000000000000000000, 0.0000000000000000000 ) ) ;
#284 = CYLINDRICAL_SURFACE ( 'NONE', #122, 22.00000000000000000 ) ;
#285 = VECTOR ( 'NONE', #64, 1000.000000000000000 ) ;
#286 = DIRECTION ( 'NONE',  ( 0.0000000000000000000, 0.0000000000000000000, 1.000000000000000000 ) ) ;
#287 = DIRECTION ( 'NONE',  ( 0.0000000000000000000, 0.0000000000000000000, -1.000000000000000000 ) ) ;
#288 = APPLICATION_PROTOCOL_DEFINITION ( 'draft international standard', 'automotive_design', 1998, #233 ) ;
#289 = VERTEX_POINT ( 'NONE', #53 ) ;
#290 = CIRCLE ( 'NONE', #95, 40.00000000000000000 ) ;
#291 = AXIS2_PLACEMENT_3D ( 'NONE', #249, #145, #179 ) ;
#292 = ORIENTED_EDGE ( 'NONE', *, *, #63, .T. ) ;
#293 = PRODUCT_DEFINITION ( 'UNKNOWN', '', #176, #10 ) ;
#294 = AXIS2_PLACEMENT_3D ( 'NONE', #78, #175, #224 ) ;
#295 = VECTOR ( 'NONE', #311, 1000.000000000000000 ) ;
#296 = DIRECTION ( 'NONE',  ( 0.0000000000000000000, 0.0000000000000000000, 1.000000000000000000 ) ) ;
#297 = EDGE_CURVE ( 'NONE', #228, #231, #235, .T. ) ;
#298 = DIRECTION ( 'NONE',  ( 1.000000000000000000, -0.0000000000000000000, -0.0000000000000000000 ) ) ;
#299 = EDGE_LOOP ( 'NONE', ( #1, #193 ) ) ;
#300 = ORIENTED_EDGE ( 'NONE', *, *, #275, .F. ) ;
#301 = ORIENTED_EDGE ( 'NONE', *, *, #134, .F. ) ;
#302 = FILL_AREA_STYLE_COLOUR ( '', #269 ) ;
#303 = VECTOR ( 'NONE', #90, 1000.000000000000000 ) ;
#304 = SURFACE_STYLE_USAGE ( .BOTH. , #61 ) ;
#305 = DIRECTION ( 'NONE',  ( 0.0000000000000000000, 0.0000000000000000000, 1.000000000000000000 ) ) ;
#306 = AXIS2_PLACEMENT_3D ( 'NONE', #310, #215, #267 ) ;
#307 = DIRECTION ( 'NONE',  ( -1.000000000000000000, 0.0000000000000000000, -0.0000000000000000000 ) ) ;
#308 = ADVANCED_FACE ( 'NONE', ( #29, #258 ), #35, .F. ) ;
#309 = DIRECTION ( 'NONE',  ( 0.0000000000000000000, 0.0000000000000000000, 1.000000000000000000 ) ) ;
#310 = CARTESIAN_POINT ( 'NONE',  ( -46.22222222222222143, 0.0000000000000000000, 0.0000000000000000000 ) ) ;
#311 = DIRECTION ( 'NONE',  ( 0.7071067811865426878, 8.659560562354994488E-17, 0.7071067811865524577 ) ) ;
#312 = DIRECTION ( 'NONE',  ( 0.0000000000000000000, 0.0000000000000000000, -1.000000000000000000 ) ) ;
#313 =( GEOMETRIC_REPRESENTATION_CONTEXT ( 3 ) GLOBAL_UNCERTAINTY_ASSIGNED_CONTEXT ( ( #206 ) ) GLOBAL_UNIT_ASSIGNED_CONTEXT ( ( #44, #280, #157 ) ) REPRESENTATION_CONTEXT ( 'NONE', 'WORKASPACE' ) );
#314 = ORIENTED_EDGE ( 'NONE', *, *, #46, .F. ) ;
ENDSEC;
END-ISO-10303-21;
