ISO-10303-21;
HEADER;
FILE_DESCRIPTION (( 'STEP AP214' ),
    '1' );
FILE_NAME ('BRM 32x6.step',
    '2020-09-08T10:23:41',
    ( '' ),
    ( '' ),
    'SwSTEP 2.0',
    'SolidWorks 2020',
    '' );
FILE_SCHEMA (( 'AUTOMOTIVE_DESIGN' ));
ENDSEC;

DATA;
#1 = ADVANCED_FACE ( 'NONE', ( #8 ), #63, .F. ) ;
#2 = CONICAL_SURFACE ( 'NONE', #188, 16.49999999999997868, 0.7853981633974415066 ) ;
#3 = CARTESIAN_POINT ( 'NONE',  ( 57.98290598290598297, 0.0000000000000000000, 0.0000000000000000000 ) ) ;
#4 = CARTESIAN_POINT ( 'NONE',  ( -6.017094017094014369, 0.0000000000000000000, 0.0000000000000000000 ) ) ;
#5 = EDGE_CURVE ( 'NONE', #233, #12, #17, .T. ) ;
#6 = EDGE_LOOP ( 'NONE', ( #234, #87, #39, #212 ) ) ;
#7 = CIRCLE ( 'NONE', #177, 16.49999999999998579 ) ;
#8 = FACE_OUTER_BOUND ( 'NONE', #66, .T. ) ;
#9 = ORIENTED_EDGE ( 'NONE', *, *, #180, .T. ) ;
#10 = APPLICATION_CONTEXT ( 'automotive_design' ) ;
#11 = EDGE_CURVE ( 'NONE', #238, #298, #21, .T. ) ;
#12 = VERTEX_POINT ( 'NONE', #43 ) ;
#13 = UNCERTAINTY_MEASURE_WITH_UNIT (LENGTH_MEASURE( 1.000000000000000082E-05 ), #86, 'distance_accuracy_value', 'NONE');
#14 = ORIENTED_EDGE ( 'NONE', *, *, #5, .F. ) ;
#15 = FACE_BOUND ( 'NONE', #140, .T. ) ;
#16 = ADVANCED_FACE ( 'NONE', ( #75 ), #36, .F. ) ;
#17 = LINE ( 'NONE', #147, #48 ) ;
#18 = DIRECTION ( 'NONE',  ( 1.000000000000000000, 0.0000000000000000000, 0.0000000000000000000 ) ) ;
#19 = UNCERTAINTY_MEASURE_WITH_UNIT (LENGTH_MEASURE( 1.000000000000000082E-05 ), #128, 'distance_accuracy_value', 'NONE');
#20 = DIRECTION ( 'NONE',  ( -1.000000000000000000, 0.0000000000000000000, 0.0000000000000000000 ) ) ;
#21 = LINE ( 'NONE', #170, #304 ) ;
#22 = CARTESIAN_POINT ( 'NONE',  ( 57.98290598290598297, 0.0000000000000000000, 30.00000000000000000 ) ) ;
#23 = AXIS2_PLACEMENT_3D ( 'NONE', #102, #20, #50 ) ;
#24 = APPLICATION_PROTOCOL_DEFINITION ( 'draft international standard', 'automotive_design', 1998, #10 ) ;
#25 = DIRECTION ( 'NONE',  ( -1.000000000000000000, 0.0000000000000000000, 0.0000000000000000000 ) ) ;
#26 = ADVANCED_FACE ( 'NONE', ( #15, #240 ), #219, .F. ) ;
#27 = AXIS2_PLACEMENT_3D ( 'NONE', #210, #294, #235 ) ;
#28 = SURFACE_STYLE_USAGE ( .BOTH. , #250 ) ;
#29 = DIRECTION ( 'NONE',  ( 0.0000000000000000000, 0.0000000000000000000, -1.000000000000000000 ) ) ;
#30 = DIRECTION ( 'NONE',  ( 1.000000000000000000, 0.0000000000000000000, 0.0000000000000000000 ) ) ;
#31 = CIRCLE ( 'NONE', #299, 16.49999999999998579 ) ;
#32 = CYLINDRICAL_SURFACE ( 'NONE', #142, 16.00000000000000000 ) ;
#33 = ORIENTED_EDGE ( 'NONE', *, *, #92, .F. ) ;
#34 = SHAPE_DEFINITION_REPRESENTATION ( #195, #207 ) ;
#35 = ORIENTED_EDGE ( 'NONE', *, *, #305, .F. ) ;
#36 = CONICAL_SURFACE ( 'NONE', #23, 16.00000000000000000, 0.7853981633974621568 ) ;
#37 = CIRCLE ( 'NONE', #96, 16.00000000000000000 ) ;
#38 = EDGE_LOOP ( 'NONE', ( #190, #295 ) ) ;
#39 = ORIENTED_EDGE ( 'NONE', *, *, #5, .T. ) ;
#40 = ORIENTED_EDGE ( 'NONE', *, *, #99, .F. ) ;
#41 = VECTOR ( 'NONE', #252, 1000.000000000000000 ) ;
#42 =( NAMED_UNIT ( * ) PLANE_ANGLE_UNIT ( ) SI_UNIT ( $, .RADIAN. ) );
#43 = CARTESIAN_POINT ( 'NONE',  ( -6.017094017094014369, 0.0000000000000000000, 30.00000000000000000 ) ) ;
#44 = ADVANCED_FACE ( 'NONE', ( #171 ), #243, .T. ) ;
#45 = CARTESIAN_POINT ( 'NONE',  ( -5.517094017094013481, 0.0000000000000000000, 0.0000000000000000000 ) ) ;
#46 = PRODUCT_DEFINITION_FORMATION_WITH_SPECIFIED_SOURCE ( 'ANY', '', #173, .NOT_KNOWN. ) ;
#47 = PLANE ( 'NONE',  #90 ) ;
#48 = VECTOR ( 'NONE', #265, 1000.000000000000000 ) ;
#49 = CIRCLE ( 'NONE', #229, 16.00000000000000000 ) ;
#50 = DIRECTION ( 'NONE',  ( 0.0000000000000000000, 0.0000000000000000000, 1.000000000000000000 ) ) ;
#51 = EDGE_CURVE ( 'NONE', #65, #165, #196, .T. ) ;
#52 = DIRECTION ( 'NONE',  ( 0.0000000000000000000, 0.0000000000000000000, 1.000000000000000000 ) ) ;
#53 =( LENGTH_UNIT ( ) NAMED_UNIT ( * ) SI_UNIT ( .MILLI., .METRE. ) );
#54 = DIRECTION ( 'NONE',  ( -1.000000000000000000, -0.0000000000000000000, -0.0000000000000000000 ) ) ;
#55 = CIRCLE ( 'NONE', #85, 16.00000000000000000 ) ;
#56 =( NAMED_UNIT ( * ) SI_UNIT ( $, .STERADIAN. ) SOLID_ANGLE_UNIT ( ) );
#57 = CARTESIAN_POINT ( 'NONE',  ( -5.517094017094013481, 1.959434878635765131E-15, -16.00000000000000000 ) ) ;
#58 = LINE ( 'NONE', #251, #41 ) ;
#59 = DIRECTION ( 'NONE',  ( -1.000000000000000000, -0.0000000000000000000, -0.0000000000000000000 ) ) ;
#60 = COLOUR_RGB ( '',0.7921568627450980005, 0.8196078431372548767, 0.9333333333333333481 ) ;
#61 = VERTEX_POINT ( 'NONE', #167 ) ;
#62 = ORIENTED_EDGE ( 'NONE', *, *, #180, .F. ) ;
#63 = CONICAL_SURFACE ( 'NONE', #95, 16.00000000000000000, 0.7853981633974621568 ) ;
#64 = VECTOR ( 'NONE', #262, 1000.000000000000000 ) ;
#65 = VERTEX_POINT ( 'NONE', #193 ) ;
#66 = EDGE_LOOP ( 'NONE', ( #209, #279, #191, #89 ) ) ;
#67 = EDGE_CURVE ( 'NONE', #238, #259, #55, .T. ) ;
#68 = EDGE_LOOP ( 'NONE', ( #276, #185, #164, #300 ) ) ;
#69 = CONICAL_SURFACE ( 'NONE', #248, 16.49999999999997868, 0.7853981633974415066 ) ;
#70 = LINE ( 'NONE', #146, #64 ) ;
#71 = FACE_BOUND ( 'NONE', #255, .T. ) ;
#72 = DIRECTION ( 'NONE',  ( 1.000000000000000000, -0.0000000000000000000, -0.0000000000000000000 ) ) ;
#73 = ADVANCED_FACE ( 'NONE', ( #172 ), #143, .T. ) ;
#74 =( GEOMETRIC_REPRESENTATION_CONTEXT ( 3 ) GLOBAL_UNCERTAINTY_ASSIGNED_CONTEXT ( ( #19 ) ) GLOBAL_UNIT_ASSIGNED_CONTEXT ( ( #128, #224, #56 ) ) REPRESENTATION_CONTEXT ( 'NONE', 'WORKASPACE' ) );
#75 = FACE_OUTER_BOUND ( 'NONE', #68, .T. ) ;
#76 = LINE ( 'NONE', #314, #218 ) ;
#77 = PRESENTATION_LAYER_ASSIGNMENT (  '', '', ( #134 ) ) ;
#78 = EDGE_CURVE ( 'NONE', #233, #65, #110, .T. ) ;
#79 =( NAMED_UNIT ( * ) SI_UNIT ( $, .STERADIAN. ) SOLID_ANGLE_UNIT ( ) );
#80 = CARTESIAN_POINT ( 'NONE',  ( -6.017094017094014369, 0.0000000000000000000, 0.0000000000000000000 ) ) ;
#81 = VECTOR ( 'NONE', #203, 1000.000000000000000 ) ;
#82 = ORIENTED_EDGE ( 'NONE', *, *, #148, .T. ) ;
#83 = DIRECTION ( 'NONE',  ( -1.000000000000000000, -0.0000000000000000000, -0.0000000000000000000 ) ) ;
#84 = DIRECTION ( 'NONE',  ( -1.000000000000000000, -0.0000000000000000000, -0.0000000000000000000 ) ) ;
#85 = AXIS2_PLACEMENT_3D ( 'NONE', #287, #100, #198 ) ;
#86 =( LENGTH_UNIT ( ) NAMED_UNIT ( * ) SI_UNIT ( .MILLI., .METRE. ) );
#87 = ORIENTED_EDGE ( 'NONE', *, *, #253, .T. ) ;
#88 = VERTEX_POINT ( 'NONE', #126 ) ;
#89 = ORIENTED_EDGE ( 'NONE', *, *, #247, .F. ) ;
#90 = AXIS2_PLACEMENT_3D ( 'NONE', #241, #18, #124 ) ;
#91 = ORIENTED_EDGE ( 'NONE', *, *, #222, .F. ) ;
#92 = EDGE_CURVE ( 'NONE', #275, #135, #31, .T. ) ;
#93 = ORIENTED_EDGE ( 'NONE', *, *, #222, .T. ) ;
#94 = DIRECTION ( 'NONE',  ( -1.000000000000000000, -0.0000000000000000000, -0.0000000000000000000 ) ) ;
#95 = AXIS2_PLACEMENT_3D ( 'NONE', #261, #308, #284 ) ;
#96 = AXIS2_PLACEMENT_3D ( 'NONE', #151, #25, #246 ) ;
#97 = DIRECTION ( 'NONE',  ( 0.0000000000000000000, 0.0000000000000000000, -1.000000000000000000 ) ) ;
#98 = DIRECTION ( 'NONE',  ( -1.000000000000000000, -0.0000000000000000000, -0.0000000000000000000 ) ) ;
#99 = EDGE_CURVE ( 'NONE', #238, #275, #70, .T. ) ;
#100 = DIRECTION ( 'NONE',  ( 1.000000000000000000, -0.0000000000000000000, -0.0000000000000000000 ) ) ;
#101 =( GEOMETRIC_REPRESENTATION_CONTEXT ( 3 ) GLOBAL_UNCERTAINTY_ASSIGNED_CONTEXT ( ( #176 ) ) GLOBAL_UNIT_ASSIGNED_CONTEXT ( ( #53, #130, #79 ) ) REPRESENTATION_CONTEXT ( 'NONE', 'WORKASPACE' ) );
#102 = CARTESIAN_POINT ( 'NONE',  ( -5.517094017094013481, 0.0000000000000000000, 0.0000000000000000000 ) ) ;
#103 = DIRECTION ( 'NONE',  ( 1.000000000000000000, -0.0000000000000000000, -0.0000000000000000000 ) ) ;
#104 = FACE_OUTER_BOUND ( 'NONE', #215, .T. ) ;
#105 = FILL_AREA_STYLE ('',( #313 ) ) ;
#106 = CARTESIAN_POINT ( 'NONE',  ( -5.517094017094013481, 0.0000000000000000000, 16.00000000000000000 ) ) ;
#107 = AXIS2_PLACEMENT_3D ( 'NONE', #3, #59, #272 ) ;
#108 = CARTESIAN_POINT ( 'NONE',  ( 57.48290598290599007, 0.0000000000000000000, 16.00000000000000000 ) ) ;
#109 = DIRECTION ( 'NONE',  ( 0.0000000000000000000, 0.0000000000000000000, 1.000000000000000000 ) ) ;
#110 = CIRCLE ( 'NONE', #285, 30.00000000000000000 ) ;
#111 = ORIENTED_EDGE ( 'NONE', *, *, #119, .T. ) ;
#112 = CIRCLE ( 'NONE', #137, 30.00000000000000000 ) ;
#113 = ORIENTED_EDGE ( 'NONE', *, *, #123, .T. ) ;
#114 = ORIENTED_EDGE ( 'NONE', *, *, #51, .T. ) ;
#115 = APPLICATION_PROTOCOL_DEFINITION ( 'draft international standard', 'automotive_design', 1998, #220 ) ;
#116 = ORIENTED_EDGE ( 'NONE', *, *, #92, .T. ) ;
#117 = CIRCLE ( 'NONE', #162, 16.50000000000001421 ) ;
#118 = ORIENTED_EDGE ( 'NONE', *, *, #67, .F. ) ;
#119 = EDGE_CURVE ( 'NONE', #298, #257, #168, .T. ) ;
#120 = CARTESIAN_POINT ( 'NONE',  ( -46.22222222222222143, 3.673940397442059178E-15, -30.00000000000000000 ) ) ;
#121 = DIRECTION ( 'NONE',  ( 0.0000000000000000000, 0.0000000000000000000, -1.000000000000000000 ) ) ;
#122 = CIRCLE ( 'NONE', #290, 30.00000000000000000 ) ;
#123 = EDGE_CURVE ( 'NONE', #88, #61, #117, .T. ) ;
#124 = DIRECTION ( 'NONE',  ( 0.0000000000000000000, 0.0000000000000000000, -1.000000000000000000 ) ) ;
#125 = DIRECTION ( 'NONE',  ( -0.0000000000000000000, 0.0000000000000000000, 1.000000000000000000 ) ) ;
#126 = CARTESIAN_POINT ( 'NONE',  ( -6.017094017094014369, 2.020667218593134678E-15, -16.50000000000001421 ) ) ;
#127 = AXIS2_PLACEMENT_3D ( 'NONE', #266, #98, #52 ) ;
#128 =( LENGTH_UNIT ( ) NAMED_UNIT ( * ) SI_UNIT ( .MILLI., .METRE. ) );
#129 = DIRECTION ( 'NONE',  ( -1.000000000000000000, -0.0000000000000000000, -0.0000000000000000000 ) ) ;
#130 =( NAMED_UNIT ( * ) PLANE_ANGLE_UNIT ( ) SI_UNIT ( $, .RADIAN. ) );
#131 = DIRECTION ( 'NONE',  ( 0.0000000000000000000, 0.0000000000000000000, 1.000000000000000000 ) ) ;
#132 = DIRECTION ( 'NONE',  ( -1.000000000000000000, -0.0000000000000000000, -0.0000000000000000000 ) ) ;
#133 = SURFACE_STYLE_USAGE ( .BOTH. , #312 ) ;
#134 = STYLED_ITEM ( 'NONE', ( #289 ), #207 ) ;
#135 = VERTEX_POINT ( 'NONE', #281 ) ;
#136 = ADVANCED_FACE ( 'NONE', ( #71, #263 ), #47, .F. ) ;
#137 = AXIS2_PLACEMENT_3D ( 'NONE', #182, #83, #202 ) ;
#138 = EDGE_LOOP ( 'NONE', ( #82, #236 ) ) ;
#139 = ORIENTED_EDGE ( 'NONE', *, *, #192, .T. ) ;
#140 = EDGE_LOOP ( 'NONE', ( #116, #139 ) ) ;
#141 = ORIENTED_EDGE ( 'NONE', *, *, #67, .T. ) ;
#142 = AXIS2_PLACEMENT_3D ( 'NONE', #179, #84, #249 ) ;
#143 = CYLINDRICAL_SURFACE ( 'NONE', #127, 30.00000000000000000 ) ;
#144 = DIRECTION ( 'NONE',  ( -1.000000000000000000, 0.0000000000000000000, 0.0000000000000000000 ) ) ;
#145 = ADVANCED_FACE ( 'NONE', ( #197 ), #69, .F. ) ;
#146 = CARTESIAN_POINT ( 'NONE',  ( 57.98290598290598297, 0.0000000000000000000, -16.49999999999997868 ) ) ;
#147 = CARTESIAN_POINT ( 'NONE',  ( -46.22222222222222143, 0.0000000000000000000, 30.00000000000000000 ) ) ;
#148 = EDGE_CURVE ( 'NONE', #12, #165, #112, .T. ) ;
#149 = DIRECTION ( 'NONE',  ( -1.000000000000000000, -0.0000000000000000000, -0.0000000000000000000 ) ) ;
#150 = DIRECTION ( 'NONE',  ( 0.0000000000000000000, 0.0000000000000000000, 1.000000000000000000 ) ) ;
#151 = CARTESIAN_POINT ( 'NONE',  ( -5.517094017094013481, 0.0000000000000000000, 0.0000000000000000000 ) ) ;
#152 = CIRCLE ( 'NONE', #242, 16.50000000000001421 ) ;
#153 = DIRECTION ( 'NONE',  ( 0.0000000000000000000, 0.0000000000000000000, -1.000000000000000000 ) ) ;
#154 = SURFACE_STYLE_FILL_AREA ( #105 ) ;
#155 = CARTESIAN_POINT ( 'NONE',  ( 57.98290598290599007, 0.0000000000000000000, -16.49999999999998579 ) ) ;
#156 = FILL_AREA_STYLE_COLOUR ( '', #60 ) ;
#157 = MANIFOLD_SOLID_BREP ( 'Chamfer1', #158 ) ;
#158 = CLOSED_SHELL ( 'NONE', ( #293, #1, #286, #73, #136, #44, #26, #174, #16, #145 ) ) ;
#159 = CARTESIAN_POINT ( 'NONE',  ( 57.98290598290599007, 0.0000000000000000000, 0.0000000000000000000 ) ) ;
#160 = ORIENTED_EDGE ( 'NONE', *, *, #99, .T. ) ;
#161 = VECTOR ( 'NONE', #169, 1000.000000000000000 ) ;
#162 = AXIS2_PLACEMENT_3D ( 'NONE', #217, #307, #97 ) ;
#163 =( NAMED_UNIT ( * ) SI_UNIT ( $, .STERADIAN. ) SOLID_ANGLE_UNIT ( ) );
#164 = ORIENTED_EDGE ( 'NONE', *, *, #247, .T. ) ;
#165 = VERTEX_POINT ( 'NONE', #204 ) ;
#166 = ORIENTED_EDGE ( 'NONE', *, *, #78, .T. ) ;
#167 = CARTESIAN_POINT ( 'NONE',  ( -6.017094017094014369, 0.0000000000000000000, 16.50000000000001421 ) ) ;
#168 = CIRCLE ( 'NONE', #208, 16.00000000000000000 ) ;
#169 = DIRECTION ( 'NONE',  ( -1.000000000000000000, -0.0000000000000000000, -0.0000000000000000000 ) ) ;
#170 = CARTESIAN_POINT ( 'NONE',  ( -46.22222222222222143, 1.959434878635765131E-15, -16.00000000000000000 ) ) ;
#171 = FACE_OUTER_BOUND ( 'NONE', #6, .T. ) ;
#172 = FACE_OUTER_BOUND ( 'NONE', #297, .T. ) ;
#173 = PRODUCT ( 'BRM 32x6', 'BRM 32x6', '', ( #184 ) ) ;
#174 = ADVANCED_FACE ( 'NONE', ( #104 ), #32, .F. ) ;
#175 = DIRECTION ( 'NONE',  ( 0.0000000000000000000, 0.0000000000000000000, -1.000000000000000000 ) ) ;
#176 = UNCERTAINTY_MEASURE_WITH_UNIT (LENGTH_MEASURE( 1.000000000000000082E-05 ), #53, 'distance_accuracy_value', 'NONE');
#177 = AXIS2_PLACEMENT_3D ( 'NONE', #159, #132, #109 ) ;
#178 = CARTESIAN_POINT ( 'NONE',  ( 57.98290598290598297, 0.0000000000000000000, 0.0000000000000000000 ) ) ;
#179 = CARTESIAN_POINT ( 'NONE',  ( -46.22222222222222143, 0.0000000000000000000, 0.0000000000000000000 ) ) ;
#180 = EDGE_CURVE ( 'NONE', #259, #135, #58, .T. ) ;
#181 = FILL_AREA_STYLE ('',( #156 ) ) ;
#182 = CARTESIAN_POINT ( 'NONE',  ( -6.017094017094014369, 0.0000000000000000000, 0.0000000000000000000 ) ) ;
#183 = EDGE_CURVE ( 'NONE', #61, #88, #152, .T. ) ;
#184 = PRODUCT_CONTEXT ( 'NONE', #10, 'mechanical' ) ;
#185 = ORIENTED_EDGE ( 'NONE', *, *, #231, .F. ) ;
#186 = COLOUR_RGB ( '',0.7921568627450980005, 0.8196078431372548767, 0.9333333333333333481 ) ;
#187 = ORIENTED_EDGE ( 'NONE', *, *, #305, .T. ) ;
#188 = AXIS2_PLACEMENT_3D ( 'NONE', #178, #103, #153 ) ;
#189 = EDGE_LOOP ( 'NONE', ( #62, #118, #160, #258 ) ) ;
#190 = ORIENTED_EDGE ( 'NONE', *, *, #78, .F. ) ;
#191 = ORIENTED_EDGE ( 'NONE', *, *, #183, .F. ) ;
#192 = EDGE_CURVE ( 'NONE', #135, #275, #7, .T. ) ;
#193 = CARTESIAN_POINT ( 'NONE',  ( 57.98290598290598297, 3.673940397442059178E-15, -30.00000000000000000 ) ) ;
#194 = VECTOR ( 'NONE', #54, 1000.000000000000000 ) ;
#195 = PRODUCT_DEFINITION_SHAPE ( 'NONE', 'NONE',  #274 ) ;
#196 = LINE ( 'NONE', #120, #161 ) ;
#197 = FACE_OUTER_BOUND ( 'NONE', #189, .T. ) ;
#198 = DIRECTION ( 'NONE',  ( 0.0000000000000000000, 0.0000000000000000000, 1.000000000000000000 ) ) ;
#199 = AXIS2_PLACEMENT_3D ( 'NONE', #309, #223, #221 ) ;
#200 = CARTESIAN_POINT ( 'NONE',  ( 57.98290598290599007, 30.00000000000000000, 0.0000000000000000000 ) ) ;
#201 = CARTESIAN_POINT ( 'NONE',  ( 57.48290598290599007, 0.0000000000000000000, 0.0000000000000000000 ) ) ;
#202 = DIRECTION ( 'NONE',  ( 0.0000000000000000000, 0.0000000000000000000, 1.000000000000000000 ) ) ;
#203 = DIRECTION ( 'NONE',  ( -0.7071067811865378028, 8.659560562355054885E-17, -0.7071067811865573427 ) ) ;
#204 = CARTESIAN_POINT ( 'NONE',  ( -6.017094017094014369, 3.673940397442059178E-15, -30.00000000000000000 ) ) ;
#205 = FACE_OUTER_BOUND ( 'NONE', #232, .T. ) ;
#206 = LINE ( 'NONE', #288, #194 ) ;
#207 = ADVANCED_BREP_SHAPE_REPRESENTATION ( 'BRM 32x6', ( #157, #27 ), #74 ) ;
#208 = AXIS2_PLACEMENT_3D ( 'NONE', #45, #144, #121 ) ;
#209 = ORIENTED_EDGE ( 'NONE', *, *, #119, .F. ) ;
#210 = CARTESIAN_POINT ( 'NONE',  ( 0.0000000000000000000, 0.0000000000000000000, 0.0000000000000000000 ) ) ;
#211 = ORIENTED_EDGE ( 'NONE', *, *, #231, .T. ) ;
#212 = ORIENTED_EDGE ( 'NONE', *, *, #282, .F. ) ;
#213 = AXIS2_PLACEMENT_3D ( 'NONE', #254, #129, #150 ) ;
#214 = ORIENTED_EDGE ( 'NONE', *, *, #183, .T. ) ;
#215 = EDGE_LOOP ( 'NONE', ( #256, #141, #93, #211 ) ) ;
#216 = DIRECTION ( 'NONE',  ( 0.0000000000000000000, 0.0000000000000000000, 1.000000000000000000 ) ) ;
#217 = CARTESIAN_POINT ( 'NONE',  ( -6.017094017094014369, 0.0000000000000000000, 0.0000000000000000000 ) ) ;
#218 = VECTOR ( 'NONE', #273, 1000.000000000000000 ) ;
#219 = PLANE ( 'NONE',  #260 ) ;
#220 = APPLICATION_CONTEXT ( 'automotive_design' ) ;
#221 = DIRECTION ( 'NONE',  ( 0.0000000000000000000, 0.0000000000000000000, 1.000000000000000000 ) ) ;
#222 = EDGE_CURVE ( 'NONE', #259, #257, #206, .T. ) ;
#223 = DIRECTION ( 'NONE',  ( -1.000000000000000000, -0.0000000000000000000, -0.0000000000000000000 ) ) ;
#224 =( NAMED_UNIT ( * ) PLANE_ANGLE_UNIT ( ) SI_UNIT ( $, .RADIAN. ) );
#225 = PRODUCT_RELATED_PRODUCT_CATEGORY ( 'part', '', ( #173 ) ) ;
#226 = PRESENTATION_STYLE_ASSIGNMENT (( #133 ) ) ;
#227 = DIRECTION ( 'NONE',  ( 1.000000000000000000, -0.0000000000000000000, -0.0000000000000000000 ) ) ;
#228 = CYLINDRICAL_SURFACE ( 'NONE', #213, 16.00000000000000000 ) ;
#229 = AXIS2_PLACEMENT_3D ( 'NONE', #201, #227, #269 ) ;
#230 = SURFACE_STYLE_FILL_AREA ( #181 ) ;
#231 = EDGE_CURVE ( 'NONE', #257, #298, #37, .T. ) ;
#232 = EDGE_LOOP ( 'NONE', ( #187, #301, #111, #91 ) ) ;
#233 = VERTEX_POINT ( 'NONE', #22 ) ;
#234 = ORIENTED_EDGE ( 'NONE', *, *, #51, .F. ) ;
#235 = DIRECTION ( 'NONE',  ( 1.000000000000000000, 0.0000000000000000000, 0.0000000000000000000 ) ) ;
#236 = ORIENTED_EDGE ( 'NONE', *, *, #282, .T. ) ;
#237 = STYLED_ITEM ( 'NONE', ( #226 ), #157 ) ;
#238 = VERTEX_POINT ( 'NONE', #291 ) ;
#239 = CARTESIAN_POINT ( 'NONE',  ( 57.98290598290599007, 0.0000000000000000000, 0.0000000000000000000 ) ) ;
#240 = FACE_OUTER_BOUND ( 'NONE', #38, .T. ) ;
#241 = CARTESIAN_POINT ( 'NONE',  ( -6.017094017094014369, 16.00000000000000000, 0.0000000000000000000 ) ) ;
#242 = AXIS2_PLACEMENT_3D ( 'NONE', #4, #30, #175 ) ;
#243 = CYLINDRICAL_SURFACE ( 'NONE', #199, 30.00000000000000000 ) ;
#244 = DIRECTION ( 'NONE',  ( 0.0000000000000000000, 0.0000000000000000000, 1.000000000000000000 ) ) ;
#245 = FACE_OUTER_BOUND ( 'NONE', #277, .T. ) ;
#246 = DIRECTION ( 'NONE',  ( 0.0000000000000000000, 0.0000000000000000000, -1.000000000000000000 ) ) ;
#247 = EDGE_CURVE ( 'NONE', #257, #61, #76, .T. ) ;
#248 = AXIS2_PLACEMENT_3D ( 'NONE', #283, #72, #29 ) ;
#249 = DIRECTION ( 'NONE',  ( 0.0000000000000000000, 0.0000000000000000000, 1.000000000000000000 ) ) ;
#250 = SURFACE_SIDE_STYLE ('',( #154 ) ) ;
#251 = CARTESIAN_POINT ( 'NONE',  ( 57.98290598290598297, 2.020667218593130339E-15, 16.49999999999997868 ) ) ;
#252 = DIRECTION ( 'NONE',  ( 0.7071067811865524577, 8.659560562354874926E-17, 0.7071067811865426878 ) ) ;
#253 = EDGE_CURVE ( 'NONE', #65, #233, #270, .T. ) ;
#254 = CARTESIAN_POINT ( 'NONE',  ( -46.22222222222222143, 0.0000000000000000000, 0.0000000000000000000 ) ) ;
#255 = EDGE_LOOP ( 'NONE', ( #214, #113 ) ) ;
#256 = ORIENTED_EDGE ( 'NONE', *, *, #11, .F. ) ;
#257 = VERTEX_POINT ( 'NONE', #106 ) ;
#258 = ORIENTED_EDGE ( 'NONE', *, *, #192, .F. ) ;
#259 = VERTEX_POINT ( 'NONE', #108 ) ;
#260 = AXIS2_PLACEMENT_3D ( 'NONE', #200, #310, #125 ) ;
#261 = CARTESIAN_POINT ( 'NONE',  ( -5.517094017094013481, 0.0000000000000000000, 0.0000000000000000000 ) ) ;
#262 = DIRECTION ( 'NONE',  ( 0.7071067811865524577, 0.0000000000000000000, -0.7071067811865426878 ) ) ;
#263 = FACE_OUTER_BOUND ( 'NONE', #138, .T. ) ;
#264 = PRODUCT_DEFINITION_CONTEXT ( 'detailed design', #220, 'design' ) ;
#265 = DIRECTION ( 'NONE',  ( -1.000000000000000000, -0.0000000000000000000, -0.0000000000000000000 ) ) ;
#266 = CARTESIAN_POINT ( 'NONE',  ( -46.22222222222222143, 0.0000000000000000000, 0.0000000000000000000 ) ) ;
#267 = EDGE_CURVE ( 'NONE', #298, #88, #292, .T. ) ;
#268 = DIRECTION ( 'NONE',  ( -1.000000000000000000, -0.0000000000000000000, -0.0000000000000000000 ) ) ;
#269 = DIRECTION ( 'NONE',  ( 0.0000000000000000000, 0.0000000000000000000, 1.000000000000000000 ) ) ;
#270 = CIRCLE ( 'NONE', #107, 30.00000000000000000 ) ;
#271 = CARTESIAN_POINT ( 'NONE',  ( -5.517094017094013481, 1.959434878635765131E-15, -16.00000000000000000 ) ) ;
#272 = DIRECTION ( 'NONE',  ( 0.0000000000000000000, 0.0000000000000000000, 1.000000000000000000 ) ) ;
#273 = DIRECTION ( 'NONE',  ( -0.7071067811865378028, 0.0000000000000000000, 0.7071067811865573427 ) ) ;
#274 = PRODUCT_DEFINITION ( 'UNKNOWN', '', #46, #264 ) ;
#275 = VERTEX_POINT ( 'NONE', #155 ) ;
#276 = ORIENTED_EDGE ( 'NONE', *, *, #267, .F. ) ;
#277 = EDGE_LOOP ( 'NONE', ( #35, #9, #33, #40 ) ) ;
#278 = ORIENTED_EDGE ( 'NONE', *, *, #148, .F. ) ;
#279 = ORIENTED_EDGE ( 'NONE', *, *, #267, .T. ) ;
#280 = DIRECTION ( 'NONE',  ( -1.000000000000000000, -0.0000000000000000000, -0.0000000000000000000 ) ) ;
#281 = CARTESIAN_POINT ( 'NONE',  ( 57.98290598290599007, 2.020667218593131128E-15, 16.49999999999998579 ) ) ;
#282 = EDGE_CURVE ( 'NONE', #165, #12, #122, .T. ) ;
#283 = CARTESIAN_POINT ( 'NONE',  ( 57.98290598290598297, 0.0000000000000000000, 0.0000000000000000000 ) ) ;
#284 = DIRECTION ( 'NONE',  ( 0.0000000000000000000, 0.0000000000000000000, 1.000000000000000000 ) ) ;
#285 = AXIS2_PLACEMENT_3D ( 'NONE', #303, #149, #244 ) ;
#286 = ADVANCED_FACE ( 'NONE', ( #205 ), #228, .F. ) ;
#287 = CARTESIAN_POINT ( 'NONE',  ( 57.48290598290599007, 0.0000000000000000000, 0.0000000000000000000 ) ) ;
#288 = CARTESIAN_POINT ( 'NONE',  ( -46.22222222222222143, 0.0000000000000000000, 16.00000000000000000 ) ) ;
#289 = PRESENTATION_STYLE_ASSIGNMENT (( #28 ) ) ;
#290 = AXIS2_PLACEMENT_3D ( 'NONE', #80, #268, #131 ) ;
#291 = CARTESIAN_POINT ( 'NONE',  ( 57.48290598290599007, 1.959434878635765131E-15, -16.00000000000000000 ) ) ;
#292 = LINE ( 'NONE', #57, #81 ) ;
#293 = ADVANCED_FACE ( 'NONE', ( #245 ), #2, .F. ) ;
#294 = DIRECTION ( 'NONE',  ( 0.0000000000000000000, 0.0000000000000000000, 1.000000000000000000 ) ) ;
#295 = ORIENTED_EDGE ( 'NONE', *, *, #253, .F. ) ;
#296 =( GEOMETRIC_REPRESENTATION_CONTEXT ( 3 ) GLOBAL_UNCERTAINTY_ASSIGNED_CONTEXT ( ( #13 ) ) GLOBAL_UNIT_ASSIGNED_CONTEXT ( ( #86, #42, #163 ) ) REPRESENTATION_CONTEXT ( 'NONE', 'WORKASPACE' ) );
#297 = EDGE_LOOP ( 'NONE', ( #166, #114, #278, #14 ) ) ;
#298 = VERTEX_POINT ( 'NONE', #271 ) ;
#299 = AXIS2_PLACEMENT_3D ( 'NONE', #239, #280, #216 ) ;
#300 = ORIENTED_EDGE ( 'NONE', *, *, #123, .F. ) ;
#301 = ORIENTED_EDGE ( 'NONE', *, *, #11, .T. ) ;
#302 = MECHANICAL_DESIGN_GEOMETRIC_PRESENTATION_REPRESENTATION (  '', ( #134 ), #296 ) ;
#303 = CARTESIAN_POINT ( 'NONE',  ( 57.98290598290598297, 0.0000000000000000000, 0.0000000000000000000 ) ) ;
#304 = VECTOR ( 'NONE', #94, 1000.000000000000000 ) ;
#305 = EDGE_CURVE ( 'NONE', #259, #238, #49, .T. ) ;
#306 = PRESENTATION_LAYER_ASSIGNMENT (  '', '', ( #237 ) ) ;
#307 = DIRECTION ( 'NONE',  ( 1.000000000000000000, 0.0000000000000000000, 0.0000000000000000000 ) ) ;
#308 = DIRECTION ( 'NONE',  ( -1.000000000000000000, 0.0000000000000000000, 0.0000000000000000000 ) ) ;
#309 = CARTESIAN_POINT ( 'NONE',  ( -46.22222222222222143, 0.0000000000000000000, 0.0000000000000000000 ) ) ;
#310 = DIRECTION ( 'NONE',  ( -1.000000000000000000, 0.0000000000000000000, -0.0000000000000000000 ) ) ;
#311 = MECHANICAL_DESIGN_GEOMETRIC_PRESENTATION_REPRESENTATION (  '', ( #237 ), #101 ) ;
#312 = SURFACE_SIDE_STYLE ('',( #230 ) ) ;
#313 = FILL_AREA_STYLE_COLOUR ( '', #186 ) ;
#314 = CARTESIAN_POINT ( 'NONE',  ( -5.517094017094013481, 0.0000000000000000000, 16.00000000000000000 ) ) ;
ENDSEC;
END-ISO-10303-21;
