ISO-10303-21;
HEADER;
FILE_DESCRIPTION (( 'STEP AP214' ),
    '1' );
FILE_NAME ('BRM 20x4.step',
    '2020-09-08T10:22:55',
    ( '' ),
    ( '' ),
    'SwSTEP 2.0',
    'SolidWorks 2020',
    '' );
FILE_SCHEMA (( 'AUTOMOTIVE_DESIGN' ));
ENDSEC;

DATA;
#1 = CLOSED_SHELL ( 'NONE', ( #195, #297, #282, #22, #227, #285, #130, #289, #83, #89 ) ) ;
#2 = ORIENTED_EDGE ( 'NONE', *, *, #15, .F. ) ;
#3 = ORIENTED_EDGE ( 'NONE', *, *, #291, .T. ) ;
#4 = ORIENTED_EDGE ( 'NONE', *, *, #166, .T. ) ;
#5 = CARTESIAN_POINT ( 'NONE',  ( 33.98290598290599007, 1.285879139104721028E-15, 10.50000000000000178 ) ) ;
#6 = AXIS2_PLACEMENT_3D ( 'NONE', #258, #76, #128 ) ;
#7 = DIRECTION ( 'NONE',  ( -0.7071067811865561215, 8.659560562354828088E-17, -0.7071067811865389130 ) ) ;
#8 = ORIENTED_EDGE ( 'NONE', *, *, #63, .F. ) ;
#9 = CARTESIAN_POINT ( 'NONE',  ( 33.48290598290598297, 1.224646799147353256E-15, -10.00000000000000000 ) ) ;
#10 = EDGE_LOOP ( 'NONE', ( #52, #220, #211, #75 ) ) ;
#11 = LINE ( 'NONE', #172, #263 ) ;
#12 = DIRECTION ( 'NONE',  ( 0.0000000000000000000, 0.0000000000000000000, 1.000000000000000000 ) ) ;
#13 = CARTESIAN_POINT ( 'NONE',  ( 33.98290598290599007, 0.0000000000000000000, 22.50000000000000000 ) ) ;
#14 = AXIS2_PLACEMENT_3D ( 'NONE', #231, #281, #181 ) ;
#15 = EDGE_CURVE ( 'NONE', #162, #119, #280, .T. ) ;
#16 = CARTESIAN_POINT ( 'NONE',  ( -5.517094017094007263, 1.224646799147353256E-15, -10.00000000000000000 ) ) ;
#17 = DIRECTION ( 'NONE',  ( 0.0000000000000000000, 0.0000000000000000000, -1.000000000000000000 ) ) ;
#18 = DIRECTION ( 'NONE',  ( -1.000000000000000000, 0.0000000000000000000, 0.0000000000000000000 ) ) ;
#19 =( LENGTH_UNIT ( ) NAMED_UNIT ( * ) SI_UNIT ( .MILLI., .METRE. ) );
#20 = APPLICATION_CONTEXT ( 'automotive_design' ) ;
#21 = DIRECTION ( 'NONE',  ( 0.0000000000000000000, 0.0000000000000000000, 1.000000000000000000 ) ) ;
#22 = ADVANCED_FACE ( 'NONE', ( #44 ), #97, .T. ) ;
#23 = ORIENTED_EDGE ( 'NONE', *, *, #278, .F. ) ;
#24 = SURFACE_SIDE_STYLE ('',( #85 ) ) ;
#25 = VERTEX_POINT ( 'NONE', #13 ) ;
#26 = EDGE_CURVE ( 'NONE', #162, #292, #145, .T. ) ;
#27 = ORIENTED_EDGE ( 'NONE', *, *, #187, .T. ) ;
#28 = EDGE_LOOP ( 'NONE', ( #2, #81, #147, #8 ) ) ;
#29 = CYLINDRICAL_SURFACE ( 'NONE', #14, 22.50000000000000000 ) ;
#30 = CARTESIAN_POINT ( 'NONE',  ( 33.98290598290599007, 0.0000000000000000000, -10.50000000000000178 ) ) ;
#31 = DIRECTION ( 'NONE',  ( 1.000000000000000000, -0.0000000000000000000, -0.0000000000000000000 ) ) ;
#32 = EDGE_LOOP ( 'NONE', ( #306, #224, #189, #241 ) ) ;
#33 = FACE_OUTER_BOUND ( 'NONE', #246, .T. ) ;
#34 = FACE_OUTER_BOUND ( 'NONE', #252, .T. ) ;
#35 = FACE_BOUND ( 'NONE', #214, .T. ) ;
#36 = DIRECTION ( 'NONE',  ( 0.0000000000000000000, 0.0000000000000000000, -1.000000000000000000 ) ) ;
#37 = FILL_AREA_STYLE ('',( #314 ) ) ;
#38 = STYLED_ITEM ( 'NONE', ( #233 ), #301 ) ;
#39 = CIRCLE ( 'NONE', #141, 10.49999999999999467 ) ;
#40 =( LENGTH_UNIT ( ) NAMED_UNIT ( * ) SI_UNIT ( .MILLI., .METRE. ) );
#41 = VECTOR ( 'NONE', #199, 1000.000000000000000 ) ;
#42 = CARTESIAN_POINT ( 'NONE',  ( -6.017094017094014369, 0.0000000000000000000, 0.0000000000000000000 ) ) ;
#43 = EDGE_CURVE ( 'NONE', #276, #138, #300, .T. ) ;
#44 = FACE_OUTER_BOUND ( 'NONE', #80, .T. ) ;
#45 = CARTESIAN_POINT ( 'NONE',  ( 33.98290598290599007, 0.0000000000000000000, 0.0000000000000000000 ) ) ;
#46 = ORIENTED_EDGE ( 'NONE', *, *, #50, .F. ) ;
#47 = DIRECTION ( 'NONE',  ( -1.000000000000000000, -0.0000000000000000000, -0.0000000000000000000 ) ) ;
#48 = ORIENTED_EDGE ( 'NONE', *, *, #15, .T. ) ;
#49 = DIRECTION ( 'NONE',  ( 0.0000000000000000000, 0.0000000000000000000, 1.000000000000000000 ) ) ;
#50 = EDGE_CURVE ( 'NONE', #178, #64, #137, .T. ) ;
#51 = CARTESIAN_POINT ( 'NONE',  ( 33.98290598290599007, 0.0000000000000000000, 0.0000000000000000000 ) ) ;
#52 = ORIENTED_EDGE ( 'NONE', *, *, #185, .F. ) ;
#53 = DIRECTION ( 'NONE',  ( 1.000000000000000000, 0.0000000000000000000, 0.0000000000000000000 ) ) ;
#54 = SURFACE_STYLE_USAGE ( .BOTH. , #205 ) ;
#55 = FACE_OUTER_BOUND ( 'NONE', #294, .T. ) ;
#56 = CIRCLE ( 'NONE', #143, 10.50000000000000178 ) ;
#57 = FILL_AREA_STYLE_COLOUR ( '', #236 ) ;
#58 = AXIS2_PLACEMENT_3D ( 'NONE', #45, #170, #49 ) ;
#59 = EDGE_CURVE ( 'NONE', #25, #178, #171, .T. ) ;
#60 = EDGE_CURVE ( 'NONE', #117, #192, #122, .T. ) ;
#61 = DIRECTION ( 'NONE',  ( 0.0000000000000000000, 0.0000000000000000000, 1.000000000000000000 ) ) ;
#62 = CONICAL_SURFACE ( 'NONE', #174, 10.50000000000000178, 0.7853981633974500554 ) ;
#63 = EDGE_CURVE ( 'NONE', #119, #138, #56, .T. ) ;
#64 = VERTEX_POINT ( 'NONE', #203 ) ;
#65 = ORIENTED_EDGE ( 'NONE', *, *, #59, .F. ) ;
#66 = ORIENTED_EDGE ( 'NONE', *, *, #166, .F. ) ;
#67 = CARTESIAN_POINT ( 'NONE',  ( 33.98290598290599007, 0.0000000000000000000, 0.0000000000000000000 ) ) ;
#68 = DIRECTION ( 'NONE',  ( -1.000000000000000000, -0.0000000000000000000, -0.0000000000000000000 ) ) ;
#69 = CARTESIAN_POINT ( 'NONE',  ( -6.017094017094014369, 0.0000000000000000000, 0.0000000000000000000 ) ) ;
#70 = DIRECTION ( 'NONE',  ( 0.0000000000000000000, 0.0000000000000000000, 1.000000000000000000 ) ) ;
#71 = UNCERTAINTY_MEASURE_WITH_UNIT (LENGTH_MEASURE( 1.000000000000000082E-05 ), #161, 'distance_accuracy_value', 'NONE');
#72 = DIRECTION ( 'NONE',  ( 1.000000000000000000, 0.0000000000000000000, 0.0000000000000000000 ) ) ;
#73 = LINE ( 'NONE', #197, #92 ) ;
#74 = DIRECTION ( 'NONE',  ( 0.0000000000000000000, 0.0000000000000000000, 1.000000000000000000 ) ) ;
#75 = ORIENTED_EDGE ( 'NONE', *, *, #291, .F. ) ;
#76 = DIRECTION ( 'NONE',  ( -1.000000000000000000, 0.0000000000000000000, -0.0000000000000000000 ) ) ;
#77 = DIRECTION ( 'NONE',  ( 1.000000000000000000, -0.0000000000000000000, -0.0000000000000000000 ) ) ;
#78 = CARTESIAN_POINT ( 'NONE',  ( 33.98290598290599007, 2.755455298081544778E-15, -22.50000000000000000 ) ) ;
#79 = AXIS2_PLACEMENT_3D ( 'NONE', #103, #207, #277 ) ;
#80 = EDGE_LOOP ( 'NONE', ( #4, #160, #46, #65 ) ) ;
#81 = ORIENTED_EDGE ( 'NONE', *, *, #273, .F. ) ;
#82 =( NAMED_UNIT ( * ) SI_UNIT ( $, .STERADIAN. ) SOLID_ANGLE_UNIT ( ) );
#83 = ADVANCED_FACE ( 'NONE', ( #34 ), #305, .F. ) ;
#84 = ORIENTED_EDGE ( 'NONE', *, *, #50, .T. ) ;
#85 = SURFACE_STYLE_FILL_AREA ( #37 ) ;
#86 = CONICAL_SURFACE ( 'NONE', #123, 10.00000000000000000, 0.7853981633974361776 ) ;
#87 = ORIENTED_EDGE ( 'NONE', *, *, #234, .T. ) ;
#88 = ORIENTED_EDGE ( 'NONE', *, *, #239, .T. ) ;
#89 = ADVANCED_FACE ( 'NONE', ( #298 ), #62, .F. ) ;
#90 = DIRECTION ( 'NONE',  ( 0.0000000000000000000, 0.0000000000000000000, 1.000000000000000000 ) ) ;
#91 = MECHANICAL_DESIGN_GEOMETRIC_PRESENTATION_REPRESENTATION (  '', ( #38 ), #213 ) ;
#92 = VECTOR ( 'NONE', #47, 1000.000000000000000 ) ;
#93 = ORIENTED_EDGE ( 'NONE', *, *, #257, .F. ) ;
#94 = DIRECTION ( 'NONE',  ( 1.000000000000000000, 0.0000000000000000000, 0.0000000000000000000 ) ) ;
#95 = ORIENTED_EDGE ( 'NONE', *, *, #187, .F. ) ;
#96 = CARTESIAN_POINT ( 'NONE',  ( -6.017094017094014369, 10.00000000000000000, 0.0000000000000000000 ) ) ;
#97 = CYLINDRICAL_SURFACE ( 'NONE', #275, 22.50000000000000000 ) ;
#98 = CARTESIAN_POINT ( 'NONE',  ( -6.017094017094014369, 0.0000000000000000000, 10.49999999999999467 ) ) ;
#99 = AXIS2_PLACEMENT_3D ( 'NONE', #150, #18, #307 ) ;
#100 = FACE_OUTER_BOUND ( 'NONE', #271, .T. ) ;
#101 = DIRECTION ( 'NONE',  ( 0.0000000000000000000, 0.0000000000000000000, 1.000000000000000000 ) ) ;
#102 = AXIS2_PLACEMENT_3D ( 'NONE', #69, #201, #90 ) ;
#103 = CARTESIAN_POINT ( 'NONE',  ( -5.517094017094007263, 0.0000000000000000000, 0.0000000000000000000 ) ) ;
#104 = CYLINDRICAL_SURFACE ( 'NONE', #109, 10.00000000000000000 ) ;
#105 = PRODUCT ( 'BRM 20x4', 'BRM 20x4', '', ( #259 ) ) ;
#106 = FACE_BOUND ( 'NONE', #262, .T. ) ;
#107 = DIRECTION ( 'NONE',  ( 0.0000000000000000000, 0.0000000000000000000, -1.000000000000000000 ) ) ;
#108 = CARTESIAN_POINT ( 'NONE',  ( -6.017094017094014369, 0.0000000000000000000, 0.0000000000000000000 ) ) ;
#109 = AXIS2_PLACEMENT_3D ( 'NONE', #200, #180, #74 ) ;
#110 = CIRCLE ( 'NONE', #287, 10.00000000000000000 ) ;
#111 = PRODUCT_DEFINITION_FORMATION_WITH_SPECIFIED_SOURCE ( 'ANY', '', #105, .NOT_KNOWN. ) ;
#112 = PRESENTATION_STYLE_ASSIGNMENT (( #265 ) ) ;
#113 =( NAMED_UNIT ( * ) SI_UNIT ( $, .STERADIAN. ) SOLID_ANGLE_UNIT ( ) );
#114 = AXIS2_PLACEMENT_3D ( 'NONE', #144, #245, #196 ) ;
#115 = ORIENTED_EDGE ( 'NONE', *, *, #209, .F. ) ;
#116 = UNCERTAINTY_MEASURE_WITH_UNIT (LENGTH_MEASURE( 1.000000000000000082E-05 ), #19, 'distance_accuracy_value', 'NONE');
#117 = VERTEX_POINT ( 'NONE', #230 ) ;
#118 = ORIENTED_EDGE ( 'NONE', *, *, #63, .T. ) ;
#119 = VERTEX_POINT ( 'NONE', #206 ) ;
#120 = ORIENTED_EDGE ( 'NONE', *, *, #239, .F. ) ;
#121 = AXIS2_PLACEMENT_3D ( 'NONE', #299, #68, #309 ) ;
#122 = CIRCLE ( 'NONE', #210, 10.49999999999999467 ) ;
#123 = AXIS2_PLACEMENT_3D ( 'NONE', #177, #279, #183 ) ;
#124 = ORIENTED_EDGE ( 'NONE', *, *, #43, .F. ) ;
#125 = CARTESIAN_POINT ( 'NONE',  ( 33.48290598290598297, 0.0000000000000000000, 10.00000000000000000 ) ) ;
#126 = CARTESIAN_POINT ( 'NONE',  ( -5.517094017094007263, 0.0000000000000000000, 10.00000000000000000 ) ) ;
#127 = DIRECTION ( 'NONE',  ( 0.7071067811865463515, 0.0000000000000000000, -0.7071067811865487940 ) ) ;
#128 = DIRECTION ( 'NONE',  ( -0.0000000000000000000, 0.0000000000000000000, 1.000000000000000000 ) ) ;
#129 = CARTESIAN_POINT ( 'NONE',  ( -46.22222222222222143, 0.0000000000000000000, 0.0000000000000000000 ) ) ;
#130 = ADVANCED_FACE ( 'NONE', ( #106, #308 ), #152, .F. ) ;
#131 = DIRECTION ( 'NONE',  ( -1.000000000000000000, -0.0000000000000000000, -0.0000000000000000000 ) ) ;
#132 = VERTEX_POINT ( 'NONE', #78 ) ;
#133 = AXIS2_PLACEMENT_3D ( 'NONE', #202, #218, #70 ) ;
#134 = DIRECTION ( 'NONE',  ( 1.000000000000000000, -0.0000000000000000000, -0.0000000000000000000 ) ) ;
#135 = DIRECTION ( 'NONE',  ( -1.000000000000000000, -0.0000000000000000000, -0.0000000000000000000 ) ) ;
#136 =( NAMED_UNIT ( * ) PLANE_ANGLE_UNIT ( ) SI_UNIT ( $, .RADIAN. ) );
#137 = CIRCLE ( 'NONE', #102, 22.50000000000000000 ) ;
#138 = VERTEX_POINT ( 'NONE', #255 ) ;
#139 = AXIS2_PLACEMENT_3D ( 'NONE', #204, #134, #148 ) ;
#140 = PRODUCT_RELATED_PRODUCT_CATEGORY ( 'part', '', ( #105 ) ) ;
#141 = AXIS2_PLACEMENT_3D ( 'NONE', #251, #53, #228 ) ;
#142 =( GEOMETRIC_REPRESENTATION_CONTEXT ( 3 ) GLOBAL_UNCERTAINTY_ASSIGNED_CONTEXT ( ( #190 ) ) GLOBAL_UNIT_ASSIGNED_CONTEXT ( ( #40, #311, #288 ) ) REPRESENTATION_CONTEXT ( 'NONE', 'WORKASPACE' ) );
#143 = AXIS2_PLACEMENT_3D ( 'NONE', #149, #193, #101 ) ;
#144 = CARTESIAN_POINT ( 'NONE',  ( -5.517094017094007263, 0.0000000000000000000, 0.0000000000000000000 ) ) ;
#145 = LINE ( 'NONE', #268, #244 ) ;
#146 = LINE ( 'NONE', #16, #238 ) ;
#147 = ORIENTED_EDGE ( 'NONE', *, *, #43, .T. ) ;
#148 = DIRECTION ( 'NONE',  ( 0.0000000000000000000, 0.0000000000000000000, 1.000000000000000000 ) ) ;
#149 = CARTESIAN_POINT ( 'NONE',  ( 33.98290598290599007, 0.0000000000000000000, 0.0000000000000000000 ) ) ;
#150 = CARTESIAN_POINT ( 'NONE',  ( -5.517094017094007263, 0.0000000000000000000, 0.0000000000000000000 ) ) ;
#151 = DIRECTION ( 'NONE',  ( 0.0000000000000000000, 0.0000000000000000000, 1.000000000000000000 ) ) ;
#152 = PLANE ( 'NONE',  #6 ) ;
#153 = FACE_OUTER_BOUND ( 'NONE', #32, .T. ) ;
#154 = AXIS2_PLACEMENT_3D ( 'NONE', #96, #94, #107 ) ;
#155 = CARTESIAN_POINT ( 'NONE',  ( 33.48290598290598297, 0.0000000000000000000, 0.0000000000000000000 ) ) ;
#156 = SURFACE_STYLE_FILL_AREA ( #223 ) ;
#157 = APPLICATION_CONTEXT ( 'automotive_design' ) ;
#158 = EDGE_CURVE ( 'NONE', #192, #117, #39, .T. ) ;
#159 = CIRCLE ( 'NONE', #58, 22.50000000000000000 ) ;
#160 = ORIENTED_EDGE ( 'NONE', *, *, #185, .T. ) ;
#161 =( LENGTH_UNIT ( ) NAMED_UNIT ( * ) SI_UNIT ( .MILLI., .METRE. ) );
#162 = VERTEX_POINT ( 'NONE', #125 ) ;
#163 = DIRECTION ( 'NONE',  ( 1.000000000000000000, 0.0000000000000000000, 0.0000000000000000000 ) ) ;
#164 = AXIS2_PLACEMENT_3D ( 'NONE', #51, #240, #21 ) ;
#165 = ORIENTED_EDGE ( 'NONE', *, *, #312, .F. ) ;
#166 = EDGE_CURVE ( 'NONE', #25, #132, #159, .T. ) ;
#167 = ORIENTED_EDGE ( 'NONE', *, *, #60, .T. ) ;
#168 = DIRECTION ( 'NONE',  ( -1.000000000000000000, -0.0000000000000000000, -0.0000000000000000000 ) ) ;
#169 = EDGE_LOOP ( 'NONE', ( #84, #3 ) ) ;
#170 = DIRECTION ( 'NONE',  ( -1.000000000000000000, -0.0000000000000000000, -0.0000000000000000000 ) ) ;
#171 = LINE ( 'NONE', #303, #256 ) ;
#172 = CARTESIAN_POINT ( 'NONE',  ( -46.22222222222222143, 2.755455298081544778E-15, -22.50000000000000000 ) ) ;
#173 = AXIS2_PLACEMENT_3D ( 'NONE', #261, #61, #163 ) ;
#174 = AXIS2_PLACEMENT_3D ( 'NONE', #67, #77, #17 ) ;
#175 = DIRECTION ( 'NONE',  ( 0.0000000000000000000, 0.0000000000000000000, -1.000000000000000000 ) ) ;
#176 = CARTESIAN_POINT ( 'NONE',  ( -5.517094017094007263, 0.0000000000000000000, 10.00000000000000000 ) ) ;
#177 = CARTESIAN_POINT ( 'NONE',  ( -5.517094017094007263, 0.0000000000000000000, 0.0000000000000000000 ) ) ;
#178 = VERTEX_POINT ( 'NONE', #253 ) ;
#179 = CYLINDRICAL_SURFACE ( 'NONE', #121, 10.00000000000000000 ) ;
#180 = DIRECTION ( 'NONE',  ( -1.000000000000000000, -0.0000000000000000000, -0.0000000000000000000 ) ) ;
#181 = DIRECTION ( 'NONE',  ( 0.0000000000000000000, 0.0000000000000000000, 1.000000000000000000 ) ) ;
#182 = CIRCLE ( 'NONE', #99, 10.00000000000000000 ) ;
#183 = DIRECTION ( 'NONE',  ( 0.0000000000000000000, 0.0000000000000000000, 1.000000000000000000 ) ) ;
#184 =( GEOMETRIC_REPRESENTATION_CONTEXT ( 3 ) GLOBAL_UNCERTAINTY_ASSIGNED_CONTEXT ( ( #71 ) ) GLOBAL_UNIT_ASSIGNED_CONTEXT ( ( #161, #235, #82 ) ) REPRESENTATION_CONTEXT ( 'NONE', 'WORKASPACE' ) );
#185 = EDGE_CURVE ( 'NONE', #132, #64, #11, .T. ) ;
#186 = STYLED_ITEM ( 'NONE', ( #112 ), #284 ) ;
#187 = EDGE_CURVE ( 'NONE', #162, #276, #110, .T. ) ;
#188 = PRODUCT_DEFINITION_CONTEXT ( 'detailed design', #20, 'design' ) ;
#189 = ORIENTED_EDGE ( 'NONE', *, *, #26, .T. ) ;
#190 = UNCERTAINTY_MEASURE_WITH_UNIT (LENGTH_MEASURE( 1.000000000000000082E-05 ), #40, 'distance_accuracy_value', 'NONE');
#191 = ORIENTED_EDGE ( 'NONE', *, *, #312, .T. ) ;
#192 = VERTEX_POINT ( 'NONE', #98 ) ;
#193 = DIRECTION ( 'NONE',  ( -1.000000000000000000, -0.0000000000000000000, -0.0000000000000000000 ) ) ;
#194 = VECTOR ( 'NONE', #198, 1000.000000000000000 ) ;
#195 = ADVANCED_FACE ( 'NONE', ( #55 ), #296, .F. ) ;
#196 = DIRECTION ( 'NONE',  ( 0.0000000000000000000, 0.0000000000000000000, 1.000000000000000000 ) ) ;
#197 = CARTESIAN_POINT ( 'NONE',  ( -46.22222222222222143, 1.224646799147353256E-15, -10.00000000000000000 ) ) ;
#198 = DIRECTION ( 'NONE',  ( 0.7071067811865463515, 8.659560562354948882E-17, 0.7071067811865487940 ) ) ;
#199 = DIRECTION ( 'NONE',  ( -0.7071067811865561215, 0.0000000000000000000, 0.7071067811865389130 ) ) ;
#200 = CARTESIAN_POINT ( 'NONE',  ( -46.22222222222222143, 0.0000000000000000000, 0.0000000000000000000 ) ) ;
#201 = DIRECTION ( 'NONE',  ( -1.000000000000000000, -0.0000000000000000000, -0.0000000000000000000 ) ) ;
#202 = CARTESIAN_POINT ( 'NONE',  ( 33.98290598290599007, 0.0000000000000000000, 0.0000000000000000000 ) ) ;
#203 = CARTESIAN_POINT ( 'NONE',  ( -6.017094017094014369, 2.755455298081544778E-15, -22.50000000000000000 ) ) ;
#204 = CARTESIAN_POINT ( 'NONE',  ( 33.48290598290598297, 0.0000000000000000000, 0.0000000000000000000 ) ) ;
#205 = SURFACE_SIDE_STYLE ('',( #156 ) ) ;
#206 = CARTESIAN_POINT ( 'NONE',  ( 33.98290598290599007, 1.285879139104721028E-15, 10.50000000000000178 ) ) ;
#207 = DIRECTION ( 'NONE',  ( -1.000000000000000000, 0.0000000000000000000, 0.0000000000000000000 ) ) ;
#208 = PRESENTATION_LAYER_ASSIGNMENT (  '', '', ( #38 ) ) ;
#209 = EDGE_CURVE ( 'NONE', #132, #25, #229, .T. ) ;
#210 = AXIS2_PLACEMENT_3D ( 'NONE', #42, #72, #175 ) ;
#211 = ORIENTED_EDGE ( 'NONE', *, *, #59, .T. ) ;
#212 = APPLICATION_PROTOCOL_DEFINITION ( 'draft international standard', 'automotive_design', 1998, #157 ) ;
#213 =( GEOMETRIC_REPRESENTATION_CONTEXT ( 3 ) GLOBAL_UNCERTAINTY_ASSIGNED_CONTEXT ( ( #116 ) ) GLOBAL_UNIT_ASSIGNED_CONTEXT ( ( #19, #136, #113 ) ) REPRESENTATION_CONTEXT ( 'NONE', 'WORKASPACE' ) );
#214 = EDGE_LOOP ( 'NONE', ( #266, #167 ) ) ;
#215 = SHAPE_DEFINITION_REPRESENTATION ( #221, #284 ) ;
#216 = PRODUCT_DEFINITION ( 'UNKNOWN', '', #111, #188 ) ;
#217 = ORIENTED_EDGE ( 'NONE', *, *, #26, .F. ) ;
#218 = DIRECTION ( 'NONE',  ( -1.000000000000000000, -0.0000000000000000000, -0.0000000000000000000 ) ) ;
#219 = CIRCLE ( 'NONE', #79, 10.00000000000000000 ) ;
#220 = ORIENTED_EDGE ( 'NONE', *, *, #209, .T. ) ;
#221 = PRODUCT_DEFINITION_SHAPE ( 'NONE', 'NONE',  #216 ) ;
#222 = DIRECTION ( 'NONE',  ( 1.000000000000000000, -0.0000000000000000000, -0.0000000000000000000 ) ) ;
#223 = FILL_AREA_STYLE ('',( #57 ) ) ;
#224 = ORIENTED_EDGE ( 'NONE', *, *, #273, .T. ) ;
#225 = CARTESIAN_POINT ( 'NONE',  ( 33.98290598290599007, 0.0000000000000000000, 0.0000000000000000000 ) ) ;
#226 = VERTEX_POINT ( 'NONE', #304 ) ;
#227 = ADVANCED_FACE ( 'NONE', ( #35, #283 ), #274, .F. ) ;
#228 = DIRECTION ( 'NONE',  ( 0.0000000000000000000, 0.0000000000000000000, -1.000000000000000000 ) ) ;
#229 = CIRCLE ( 'NONE', #133, 22.50000000000000000 ) ;
#230 = CARTESIAN_POINT ( 'NONE',  ( -6.017094017094014369, 1.285879139104720239E-15, -10.49999999999999467 ) ) ;
#231 = CARTESIAN_POINT ( 'NONE',  ( -46.22222222222222143, 0.0000000000000000000, 0.0000000000000000000 ) ) ;
#232 = EDGE_CURVE ( 'NONE', #226, #117, #146, .T. ) ;
#233 = PRESENTATION_STYLE_ASSIGNMENT (( #54 ) ) ;
#234 = EDGE_CURVE ( 'NONE', #276, #226, #73, .T. ) ;
#235 =( NAMED_UNIT ( * ) PLANE_ANGLE_UNIT ( ) SI_UNIT ( $, .RADIAN. ) );
#236 = COLOUR_RGB ( '',0.7921568627450980005, 0.8196078431372548767, 0.9333333333333333481 ) ;
#237 = ORIENTED_EDGE ( 'NONE', *, *, #232, .T. ) ;
#238 = VECTOR ( 'NONE', #7, 1000.000000000000000 ) ;
#239 = EDGE_CURVE ( 'NONE', #292, #192, #248, .T. ) ;
#240 = DIRECTION ( 'NONE',  ( -1.000000000000000000, -0.0000000000000000000, -0.0000000000000000000 ) ) ;
#241 = ORIENTED_EDGE ( 'NONE', *, *, #257, .T. ) ;
#242 = CIRCLE ( 'NONE', #139, 10.00000000000000000 ) ;
#243 = APPLICATION_PROTOCOL_DEFINITION ( 'draft international standard', 'automotive_design', 1998, #20 ) ;
#244 = VECTOR ( 'NONE', #168, 1000.000000000000000 ) ;
#245 = DIRECTION ( 'NONE',  ( -1.000000000000000000, 0.0000000000000000000, 0.0000000000000000000 ) ) ;
#246 = EDGE_LOOP ( 'NONE', ( #27, #87, #264, #217 ) ) ;
#247 = MECHANICAL_DESIGN_GEOMETRIC_PRESENTATION_REPRESENTATION (  '', ( #186 ), #184 ) ;
#248 = LINE ( 'NONE', #176, #41 ) ;
#249 = CIRCLE ( 'NONE', #286, 22.50000000000000000 ) ;
#250 = ORIENTED_EDGE ( 'NONE', *, *, #232, .F. ) ;
#251 = CARTESIAN_POINT ( 'NONE',  ( -6.017094017094014369, 0.0000000000000000000, 0.0000000000000000000 ) ) ;
#252 = EDGE_LOOP ( 'NONE', ( #250, #93, #88, #290 ) ) ;
#253 = CARTESIAN_POINT ( 'NONE',  ( -6.017094017094014369, 0.0000000000000000000, 22.50000000000000000 ) ) ;
#254 = DIRECTION ( 'NONE',  ( -1.000000000000000000, -0.0000000000000000000, -0.0000000000000000000 ) ) ;
#255 = CARTESIAN_POINT ( 'NONE',  ( 33.98290598290599007, 0.0000000000000000000, -10.50000000000000178 ) ) ;
#256 = VECTOR ( 'NONE', #254, 1000.000000000000000 ) ;
#257 = EDGE_CURVE ( 'NONE', #292, #226, #219, .T. ) ;
#258 = CARTESIAN_POINT ( 'NONE',  ( 33.98290598290599007, 22.50000000000000000, 0.0000000000000000000 ) ) ;
#259 = PRODUCT_CONTEXT ( 'NONE', #157, 'mechanical' ) ;
#260 = PRESENTATION_LAYER_ASSIGNMENT (  '', '', ( #186 ) ) ;
#261 = CARTESIAN_POINT ( 'NONE',  ( 0.0000000000000000000, 0.0000000000000000000, 0.0000000000000000000 ) ) ;
#262 = EDGE_LOOP ( 'NONE', ( #191, #118 ) ) ;
#263 = VECTOR ( 'NONE', #131, 1000.000000000000000 ) ;
#264 = ORIENTED_EDGE ( 'NONE', *, *, #278, .T. ) ;
#265 = SURFACE_STYLE_USAGE ( .BOTH. , #24 ) ;
#266 = ORIENTED_EDGE ( 'NONE', *, *, #158, .T. ) ;
#267 = AXIS2_PLACEMENT_3D ( 'NONE', #225, #222, #36 ) ;
#268 = CARTESIAN_POINT ( 'NONE',  ( -46.22222222222222143, 0.0000000000000000000, 10.00000000000000000 ) ) ;
#269 = ORIENTED_EDGE ( 'NONE', *, *, #158, .F. ) ;
#270 = DIRECTION ( 'NONE',  ( 0.0000000000000000000, 0.0000000000000000000, 1.000000000000000000 ) ) ;
#271 = EDGE_LOOP ( 'NONE', ( #23, #237, #269, #120 ) ) ;
#272 = CIRCLE ( 'NONE', #164, 10.50000000000000178 ) ;
#273 = EDGE_CURVE ( 'NONE', #276, #162, #242, .T. ) ;
#274 = PLANE ( 'NONE',  #154 ) ;
#275 = AXIS2_PLACEMENT_3D ( 'NONE', #129, #295, #151 ) ;
#276 = VERTEX_POINT ( 'NONE', #9 ) ;
#277 = DIRECTION ( 'NONE',  ( 0.0000000000000000000, 0.0000000000000000000, -1.000000000000000000 ) ) ;
#278 = EDGE_CURVE ( 'NONE', #226, #292, #182, .T. ) ;
#279 = DIRECTION ( 'NONE',  ( -1.000000000000000000, 0.0000000000000000000, 0.0000000000000000000 ) ) ;
#280 = LINE ( 'NONE', #5, #194 ) ;
#281 = DIRECTION ( 'NONE',  ( -1.000000000000000000, -0.0000000000000000000, -0.0000000000000000000 ) ) ;
#282 = ADVANCED_FACE ( 'NONE', ( #33 ), #179, .F. ) ;
#283 = FACE_OUTER_BOUND ( 'NONE', #169, .T. ) ;
#284 = ADVANCED_BREP_SHAPE_REPRESENTATION ( 'BRM 20x4', ( #301, #173 ), #142 ) ;
#285 = ADVANCED_FACE ( 'NONE', ( #302 ), #29, .T. ) ;
#286 = AXIS2_PLACEMENT_3D ( 'NONE', #108, #135, #12 ) ;
#287 = AXIS2_PLACEMENT_3D ( 'NONE', #155, #31, #270 ) ;
#288 =( NAMED_UNIT ( * ) SI_UNIT ( $, .STERADIAN. ) SOLID_ANGLE_UNIT ( ) );
#289 = ADVANCED_FACE ( 'NONE', ( #153 ), #104, .F. ) ;
#290 = ORIENTED_EDGE ( 'NONE', *, *, #60, .F. ) ;
#291 = EDGE_CURVE ( 'NONE', #64, #178, #249, .T. ) ;
#292 = VERTEX_POINT ( 'NONE', #126 ) ;
#293 = COLOUR_RGB ( '',0.7921568627450980005, 0.8196078431372548767, 0.9333333333333333481 ) ;
#294 = EDGE_LOOP ( 'NONE', ( #95, #48, #165, #124 ) ) ;
#295 = DIRECTION ( 'NONE',  ( -1.000000000000000000, -0.0000000000000000000, -0.0000000000000000000 ) ) ;
#296 = CONICAL_SURFACE ( 'NONE', #267, 10.50000000000000178, 0.7853981633974500554 ) ;
#297 = ADVANCED_FACE ( 'NONE', ( #100 ), #86, .F. ) ;
#298 = FACE_OUTER_BOUND ( 'NONE', #28, .T. ) ;
#299 = CARTESIAN_POINT ( 'NONE',  ( -46.22222222222222143, 0.0000000000000000000, 0.0000000000000000000 ) ) ;
#300 = LINE ( 'NONE', #30, #310 ) ;
#301 = MANIFOLD_SOLID_BREP ( 'Chamfer1', #1 ) ;
#302 = FACE_OUTER_BOUND ( 'NONE', #10, .T. ) ;
#303 = CARTESIAN_POINT ( 'NONE',  ( -46.22222222222222143, 0.0000000000000000000, 22.50000000000000000 ) ) ;
#304 = CARTESIAN_POINT ( 'NONE',  ( -5.517094017094007263, 1.224646799147353256E-15, -10.00000000000000000 ) ) ;
#305 = CONICAL_SURFACE ( 'NONE', #114, 10.00000000000000000, 0.7853981633974361776 ) ;
#306 = ORIENTED_EDGE ( 'NONE', *, *, #234, .F. ) ;
#307 = DIRECTION ( 'NONE',  ( 0.0000000000000000000, 0.0000000000000000000, -1.000000000000000000 ) ) ;
#308 = FACE_OUTER_BOUND ( 'NONE', #313, .T. ) ;
#309 = DIRECTION ( 'NONE',  ( 0.0000000000000000000, 0.0000000000000000000, 1.000000000000000000 ) ) ;
#310 = VECTOR ( 'NONE', #127, 1000.000000000000000 ) ;
#311 =( NAMED_UNIT ( * ) PLANE_ANGLE_UNIT ( ) SI_UNIT ( $, .RADIAN. ) );
#312 = EDGE_CURVE ( 'NONE', #138, #119, #272, .T. ) ;
#313 = EDGE_LOOP ( 'NONE', ( #66, #115 ) ) ;
#314 = FILL_AREA_STYLE_COLOUR ( '', #293 ) ;
ENDSEC;
END-ISO-10303-21;
