ISO-10303-21;
HEADER;
FILE_DESCRIPTION (( 'STEP AP214' ),
    '1' );
FILE_NAME ('BRM 8x1.5.step',
    '2020-09-08T10:24:22',
    ( '' ),
    ( '' ),
    'SwSTEP 2.0',
    'SolidWorks 2020',
    '' );
FILE_SCHEMA (( 'AUTOMOTIVE_DESIGN' ));
ENDSEC;

DATA;
#1 = DIRECTION ( 'NONE',  ( 1.000000000000000000, -0.0000000000000000000, -0.0000000000000000000 ) ) ;
#2 = DIRECTION ( 'NONE',  ( 1.000000000000000000, 0.0000000000000000000, 0.0000000000000000000 ) ) ;
#3 = UNCERTAINTY_MEASURE_WITH_UNIT (LENGTH_MEASURE( 1.000000000000000082E-05 ), #305, 'distance_accuracy_value', 'NONE');
#4 = VECTOR ( 'NONE', #259, 1000.000000000000000 ) ;
#5 = LINE ( 'NONE', #6, #116 ) ;
#6 = CARTESIAN_POINT ( 'NONE',  ( 13.98290598290599718, 0.0000000000000000000, -4.499999999999993783 ) ) ;
#7 = EDGE_CURVE ( 'NONE', #264, #160, #195, .T. ) ;
#8 = VECTOR ( 'NONE', #106, 1000.000000000000000 ) ;
#9 = DIRECTION ( 'NONE',  ( -0.0000000000000000000, 0.0000000000000000000, 1.000000000000000000 ) ) ;
#10 = EDGE_LOOP ( 'NONE', ( #304, #280, #208, #285 ) ) ;
#11 = CARTESIAN_POINT ( 'NONE',  ( -5.517094017094013481, 0.0000000000000000000, 3.999999999999996447 ) ) ;
#12 = ORIENTED_EDGE ( 'NONE', *, *, #310, .F. ) ;
#13 = ORIENTED_EDGE ( 'NONE', *, *, #130, .T. ) ;
#14 = VECTOR ( 'NONE', #71, 1000.000000000000000 ) ;
#15 = AXIS2_PLACEMENT_3D ( 'NONE', #312, #23, #2 ) ;
#16 = DIRECTION ( 'NONE',  ( 0.0000000000000000000, 0.0000000000000000000, 1.000000000000000000 ) ) ;
#17 = ORIENTED_EDGE ( 'NONE', *, *, #289, .T. ) ;
#18 = SURFACE_SIDE_STYLE ('',( #133 ) ) ;
#19 = EDGE_LOOP ( 'NONE', ( #218, #249 ) ) ;
#20 = CONICAL_SURFACE ( 'NONE', #199, 3.999999999999996447, 0.7853981633974482790 ) ;
#21 = DIRECTION ( 'NONE',  ( 0.0000000000000000000, 0.0000000000000000000, 1.000000000000000000 ) ) ;
#22 = SURFACE_STYLE_FILL_AREA ( #241 ) ;
#23 = DIRECTION ( 'NONE',  ( 0.0000000000000000000, 0.0000000000000000000, 1.000000000000000000 ) ) ;
#24 = CARTESIAN_POINT ( 'NONE',  ( 13.98290598290599718, 0.0000000000000000000, 0.0000000000000000000 ) ) ;
#25 = AXIS2_PLACEMENT_3D ( 'NONE', #263, #45, #281 ) ;
#26 = CARTESIAN_POINT ( 'NONE',  ( -6.017094017094014369, 0.0000000000000000000, 10.99999999999999645 ) ) ;
#27 = PRODUCT_RELATED_PRODUCT_CATEGORY ( 'part', '', ( #58 ) ) ;
#28 = EDGE_CURVE ( 'NONE', #267, #160, #146, .T. ) ;
#29 = PRODUCT_DEFINITION_SHAPE ( 'NONE', 'NONE',  #85 ) ;
#30 = CARTESIAN_POINT ( 'NONE',  ( -46.22222222222222143, 0.0000000000000000000, 3.999999999999996447 ) ) ;
#31 = DIRECTION ( 'NONE',  ( -1.000000000000000000, 0.0000000000000000000, 0.0000000000000000000 ) ) ;
#32 = AXIS2_PLACEMENT_3D ( 'NONE', #219, #1, #75 ) ;
#33 = ORIENTED_EDGE ( 'NONE', *, *, #297, .F. ) ;
#34 = FACE_OUTER_BOUND ( 'NONE', #143, .T. ) ;
#35 = ORIENTED_EDGE ( 'NONE', *, *, #310, .T. ) ;
#36 = DIRECTION ( 'NONE',  ( 0.0000000000000000000, 0.0000000000000000000, 1.000000000000000000 ) ) ;
#37 = ORIENTED_EDGE ( 'NONE', *, *, #120, .F. ) ;
#38 = FILL_AREA_STYLE ('',( #256 ) ) ;
#39 = AXIS2_PLACEMENT_3D ( 'NONE', #24, #163, #193 ) ;
#40 = CIRCLE ( 'NONE', #226, 10.99999999999999645 ) ;
#41 = FACE_OUTER_BOUND ( 'NONE', #287, .T. ) ;
#42 = ORIENTED_EDGE ( 'NONE', *, *, #207, .T. ) ;
#43 = EDGE_CURVE ( 'NONE', #171, #90, #52, .T. ) ;
#44 = VERTEX_POINT ( 'NONE', #291 ) ;
#45 = DIRECTION ( 'NONE',  ( -1.000000000000000000, -0.0000000000000000000, -0.0000000000000000000 ) ) ;
#46 = ORIENTED_EDGE ( 'NONE', *, *, #200, .T. ) ;
#47 = AXIS2_PLACEMENT_3D ( 'NONE', #91, #134, #137 ) ;
#48 =( NAMED_UNIT ( * ) SI_UNIT ( $, .STERADIAN. ) SOLID_ANGLE_UNIT ( ) );
#49 =( LENGTH_UNIT ( ) NAMED_UNIT ( * ) SI_UNIT ( .MILLI., .METRE. ) );
#50 = CARTESIAN_POINT ( 'NONE',  ( -6.017094017094014369, 0.0000000000000000000, 0.0000000000000000000 ) ) ;
#51 = CYLINDRICAL_SURFACE ( 'NONE', #206, 3.999999999999996447 ) ;
#52 = CIRCLE ( 'NONE', #225, 4.499999999999997335 ) ;
#53 = UNCERTAINTY_MEASURE_WITH_UNIT (LENGTH_MEASURE( 1.000000000000000082E-05 ), #49, 'distance_accuracy_value', 'NONE');
#54 = DIRECTION ( 'NONE',  ( -1.000000000000000000, -0.0000000000000000000, -0.0000000000000000000 ) ) ;
#55 = ADVANCED_FACE ( 'NONE', ( #72 ), #272, .F. ) ;
#56 = DIRECTION ( 'NONE',  ( 1.000000000000000000, -0.0000000000000000000, -0.0000000000000000000 ) ) ;
#57 = DIRECTION ( 'NONE',  ( 1.000000000000000000, 0.0000000000000000000, 0.0000000000000000000 ) ) ;
#58 = PRODUCT ( 'BRM 8x1.5', 'BRM 8x1.5', '', ( #119 ) ) ;
#59 = ORIENTED_EDGE ( 'NONE', *, *, #297, .T. ) ;
#60 = CARTESIAN_POINT ( 'NONE',  ( 13.98290598290599718, 5.510910596163081667E-16, 4.499999999999993783 ) ) ;
#61 = PRESENTATION_LAYER_ASSIGNMENT (  '', '', ( #198 ) ) ;
#62 = CONICAL_SURFACE ( 'NONE', #189, 4.499999999999993783, 0.7853981633974447263 ) ;
#63 = ORIENTED_EDGE ( 'NONE', *, *, #43, .F. ) ;
#64 = CYLINDRICAL_SURFACE ( 'NONE', #278, 10.99999999999999645 ) ;
#65 = VERTEX_POINT ( 'NONE', #121 ) ;
#66 = EDGE_CURVE ( 'NONE', #65, #90, #93, .T. ) ;
#67 = SURFACE_STYLE_USAGE ( .BOTH. , #18 ) ;
#68 = MECHANICAL_DESIGN_GEOMETRIC_PRESENTATION_REPRESENTATION (  '', ( #98 ), #150 ) ;
#69 = ADVANCED_FACE ( 'NONE', ( #167 ), #165, .T. ) ;
#70 = CARTESIAN_POINT ( 'NONE',  ( 13.98290598290599718, 0.0000000000000000000, 10.99999999999999645 ) ) ;
#71 = DIRECTION ( 'NONE',  ( -1.000000000000000000, -0.0000000000000000000, -0.0000000000000000000 ) ) ;
#72 = FACE_OUTER_BOUND ( 'NONE', #302, .T. ) ;
#73 = CARTESIAN_POINT ( 'NONE',  ( -6.017094017094014369, 0.0000000000000000000, 0.0000000000000000000 ) ) ;
#74 = MANIFOLD_SOLID_BREP ( 'Chamfer1', #155 ) ;
#75 = DIRECTION ( 'NONE',  ( 0.0000000000000000000, 0.0000000000000000000, 1.000000000000000000 ) ) ;
#76 = FACE_OUTER_BOUND ( 'NONE', #10, .T. ) ;
#77 = AXIS2_PLACEMENT_3D ( 'NONE', #293, #178, #179 ) ;
#78 = DIRECTION ( 'NONE',  ( -1.000000000000000000, 0.0000000000000000000, 0.0000000000000000000 ) ) ;
#79 = VECTOR ( 'NONE', #240, 1000.000000000000114 ) ;
#80 = AXIS2_PLACEMENT_3D ( 'NONE', #81, #57, #275 ) ;
#81 = CARTESIAN_POINT ( 'NONE',  ( -6.017094017094014369, 3.999999999999996447, 0.0000000000000000000 ) ) ;
#82 = VERTEX_POINT ( 'NONE', #201 ) ;
#83 = CARTESIAN_POINT ( 'NONE',  ( 13.48290598290599540, 4.898587196589408884E-16, -3.999999999999996447 ) ) ;
#84 = CARTESIAN_POINT ( 'NONE',  ( -5.517094017094013481, 0.0000000000000000000, 0.0000000000000000000 ) ) ;
#85 = PRODUCT_DEFINITION ( 'UNKNOWN', '', #196, #100 ) ;
#86 = EDGE_CURVE ( 'NONE', #65, #44, #243, .T. ) ;
#87 = COLOUR_RGB ( '',0.7921568627450980005, 0.8196078431372548767, 0.9333333333333333481 ) ;
#88 = EDGE_LOOP ( 'NONE', ( #185, #210, #63, #37 ) ) ;
#89 = DIRECTION ( 'NONE',  ( -1.000000000000000000, 0.0000000000000000000, 0.0000000000000000000 ) ) ;
#90 = VERTEX_POINT ( 'NONE', #222 ) ;
#91 = CARTESIAN_POINT ( 'NONE',  ( -6.017094017094014369, 0.0000000000000000000, 0.0000000000000000000 ) ) ;
#92 = CARTESIAN_POINT ( 'NONE',  ( -46.22222222222222143, 0.0000000000000000000, 0.0000000000000000000 ) ) ;
#93 = LINE ( 'NONE', #236, #79 ) ;
#94 = AXIS2_PLACEMENT_3D ( 'NONE', #166, #254, #16 ) ;
#95 = EDGE_LOOP ( 'NONE', ( #42, #157, #292, #232 ) ) ;
#96 = DIRECTION ( 'NONE',  ( -1.000000000000000000, -0.0000000000000000000, -0.0000000000000000000 ) ) ;
#97 = ORIENTED_EDGE ( 'NONE', *, *, #269, .T. ) ;
#98 = STYLED_ITEM ( 'NONE', ( #261 ), #182 ) ;
#99 = FILL_AREA_STYLE_COLOUR ( '', #128 ) ;
#100 = PRODUCT_DEFINITION_CONTEXT ( 'detailed design', #124, 'design' ) ;
#101 = ADVANCED_FACE ( 'NONE', ( #172, #181 ), #229, .F. ) ;
#102 = DIRECTION ( 'NONE',  ( 0.0000000000000000000, 0.0000000000000000000, 1.000000000000000000 ) ) ;
#103 = APPLICATION_PROTOCOL_DEFINITION ( 'draft international standard', 'automotive_design', 1998, #124 ) ;
#104 = CARTESIAN_POINT ( 'NONE',  ( 13.98290598290599718, 0.0000000000000000000, 0.0000000000000000000 ) ) ;
#105 = VECTOR ( 'NONE', #204, 1000.000000000000114 ) ;
#106 = DIRECTION ( 'NONE',  ( -1.000000000000000000, -0.0000000000000000000, -0.0000000000000000000 ) ) ;
#107 = ORIENTED_EDGE ( 'NONE', *, *, #43, .T. ) ;
#108 = DIRECTION ( 'NONE',  ( 0.7071067811865500152, 8.659560562354903276E-17, 0.7071067811865451302 ) ) ;
#109 = EDGE_CURVE ( 'NONE', #277, #267, #131, .T. ) ;
#110 = CARTESIAN_POINT ( 'NONE',  ( 13.48290598290599540, 0.0000000000000000000, 3.999999999999996447 ) ) ;
#111 = EDGE_LOOP ( 'NONE', ( #170, #228 ) ) ;
#112 = DIRECTION ( 'NONE',  ( -1.000000000000000000, -0.0000000000000000000, -0.0000000000000000000 ) ) ;
#113 = ORIENTED_EDGE ( 'NONE', *, *, #7, .T. ) ;
#114 = CARTESIAN_POINT ( 'NONE',  ( 13.98290598290599718, 1.347111479062088010E-15, -10.99999999999999645 ) ) ;
#115 = DIRECTION ( 'NONE',  ( -1.000000000000000000, -0.0000000000000000000, -0.0000000000000000000 ) ) ;
#116 = VECTOR ( 'NONE', #151, 1000.000000000000114 ) ;
#117 =( LENGTH_UNIT ( ) NAMED_UNIT ( * ) SI_UNIT ( .MILLI., .METRE. ) );
#118 = SURFACE_SIDE_STYLE ('',( #22 ) ) ;
#119 = PRODUCT_CONTEXT ( 'NONE', #248, 'mechanical' ) ;
#120 = EDGE_CURVE ( 'NONE', #44, #171, #173, .T. ) ;
#121 = CARTESIAN_POINT ( 'NONE',  ( -5.517094017094013481, 4.898587196589408884E-16, -3.999999999999996447 ) ) ;
#122 =( GEOMETRIC_REPRESENTATION_CONTEXT ( 3 ) GLOBAL_UNCERTAINTY_ASSIGNED_CONTEXT ( ( #144 ) ) GLOBAL_UNIT_ASSIGNED_CONTEXT ( ( #117, #161, #284 ) ) REPRESENTATION_CONTEXT ( 'NONE', 'WORKASPACE' ) );
#123 = DIRECTION ( 'NONE',  ( 0.0000000000000000000, 0.0000000000000000000, -1.000000000000000000 ) ) ;
#124 = APPLICATION_CONTEXT ( 'automotive_design' ) ;
#125 = DIRECTION ( 'NONE',  ( 0.0000000000000000000, 0.0000000000000000000, 1.000000000000000000 ) ) ;
#126 = CARTESIAN_POINT ( 'NONE',  ( -5.517094017094013481, 0.0000000000000000000, 0.0000000000000000000 ) ) ;
#127 = CARTESIAN_POINT ( 'NONE',  ( -46.22222222222222143, 1.347111479062088010E-15, -10.99999999999999645 ) ) ;
#128 = COLOUR_RGB ( '',0.7921568627450980005, 0.8196078431372548767, 0.9333333333333333481 ) ;
#129 = CIRCLE ( 'NONE', #47, 4.499999999999997335 ) ;
#130 = EDGE_CURVE ( 'NONE', #262, #44, #294, .T. ) ;
#131 = LINE ( 'NONE', #127, #8 ) ;
#132 = EDGE_LOOP ( 'NONE', ( #107, #35 ) ) ;
#133 = SURFACE_STYLE_FILL_AREA ( #38 ) ;
#134 = DIRECTION ( 'NONE',  ( 1.000000000000000000, 0.0000000000000000000, 0.0000000000000000000 ) ) ;
#135 = ORIENTED_EDGE ( 'NONE', *, *, #141, .F. ) ;
#136 = DIRECTION ( 'NONE',  ( 0.0000000000000000000, 0.0000000000000000000, 1.000000000000000000 ) ) ;
#137 = DIRECTION ( 'NONE',  ( 0.0000000000000000000, 0.0000000000000000000, -1.000000000000000000 ) ) ;
#138 = ORIENTED_EDGE ( 'NONE', *, *, #152, .T. ) ;
#139 = MECHANICAL_DESIGN_GEOMETRIC_PRESENTATION_REPRESENTATION (  '', ( #198 ), #295 ) ;
#140 = CIRCLE ( 'NONE', #94, 10.99999999999999645 ) ;
#141 = EDGE_CURVE ( 'NONE', #230, #311, #5, .T. ) ;
#142 = CARTESIAN_POINT ( 'NONE',  ( -46.22222222222222143, 0.0000000000000000000, 0.0000000000000000000 ) ) ;
#143 = EDGE_LOOP ( 'NONE', ( #33, #97, #13, #282 ) ) ;
#144 = UNCERTAINTY_MEASURE_WITH_UNIT (LENGTH_MEASURE( 1.000000000000000082E-05 ), #117, 'distance_accuracy_value', 'NONE');
#145 = FACE_OUTER_BOUND ( 'NONE', #88, .T. ) ;
#146 = CIRCLE ( 'NONE', #188, 10.99999999999999645 ) ;
#147 = VECTOR ( 'NONE', #108, 1000.000000000000114 ) ;
#148 = PLANE ( 'NONE',  #80 ) ;
#149 = ADVANCED_FACE ( 'NONE', ( #145 ), #20, .F. ) ;
#150 =( GEOMETRIC_REPRESENTATION_CONTEXT ( 3 ) GLOBAL_UNCERTAINTY_ASSIGNED_CONTEXT ( ( #3 ) ) GLOBAL_UNIT_ASSIGNED_CONTEXT ( ( #305, #169, #48 ) ) REPRESENTATION_CONTEXT ( 'NONE', 'WORKASPACE' ) );
#151 = DIRECTION ( 'NONE',  ( 0.7071067811865500152, 0.0000000000000000000, -0.7071067811865451302 ) ) ;
#152 = EDGE_CURVE ( 'NONE', #262, #82, #271, .T. ) ;
#153 = FACE_OUTER_BOUND ( 'NONE', #314, .T. ) ;
#154 = FACE_BOUND ( 'NONE', #132, .T. ) ;
#155 = CLOSED_SHELL ( 'NONE', ( #55, #149, #290, #69, #211, #253, #101, #231, #220, #176 ) ) ;
#156 = AXIS2_PLACEMENT_3D ( 'NONE', #84, #89, #158 ) ;
#157 = ORIENTED_EDGE ( 'NONE', *, *, #109, .T. ) ;
#158 = DIRECTION ( 'NONE',  ( 0.0000000000000000000, 0.0000000000000000000, -1.000000000000000000 ) ) ;
#159 = ORIENTED_EDGE ( 'NONE', *, *, #86, .T. ) ;
#160 = VERTEX_POINT ( 'NONE', #26 ) ;
#161 =( NAMED_UNIT ( * ) PLANE_ANGLE_UNIT ( ) SI_UNIT ( $, .RADIAN. ) );
#162 = VECTOR ( 'NONE', #197, 1000.000000000000000 ) ;
#163 = DIRECTION ( 'NONE',  ( 1.000000000000000000, -0.0000000000000000000, -0.0000000000000000000 ) ) ;
#164 = CYLINDRICAL_SURFACE ( 'NONE', #217, 3.999999999999996447 ) ;
#165 = CYLINDRICAL_SURFACE ( 'NONE', #174, 10.99999999999999645 ) ;
#166 = CARTESIAN_POINT ( 'NONE',  ( -6.017094017094014369, 0.0000000000000000000, 0.0000000000000000000 ) ) ;
#167 = FACE_OUTER_BOUND ( 'NONE', #95, .T. ) ;
#168 = EDGE_CURVE ( 'NONE', #82, #311, #273, .T. ) ;
#169 =( NAMED_UNIT ( * ) PLANE_ANGLE_UNIT ( ) SI_UNIT ( $, .RADIAN. ) );
#170 = ORIENTED_EDGE ( 'NONE', *, *, #266, .T. ) ;
#171 = VERTEX_POINT ( 'NONE', #203 ) ;
#172 = FACE_BOUND ( 'NONE', #234, .T. ) ;
#173 = LINE ( 'NONE', #11, #105 ) ;
#174 = AXIS2_PLACEMENT_3D ( 'NONE', #142, #96, #136 ) ;
#175 = SHAPE_DEFINITION_REPRESENTATION ( #29, #182 ) ;
#176 = ADVANCED_FACE ( 'NONE', ( #76 ), #62, .F. ) ;
#177 = CIRCLE ( 'NONE', #25, 4.499999999999993783 ) ;
#178 = DIRECTION ( 'NONE',  ( -1.000000000000000000, -0.0000000000000000000, -0.0000000000000000000 ) ) ;
#179 = DIRECTION ( 'NONE',  ( 0.0000000000000000000, 0.0000000000000000000, 1.000000000000000000 ) ) ;
#180 = ORIENTED_EDGE ( 'NONE', *, *, #28, .F. ) ;
#181 = FACE_OUTER_BOUND ( 'NONE', #19, .T. ) ;
#182 = ADVANCED_BREP_SHAPE_REPRESENTATION ( 'BRM 8x1.5', ( #74, #15 ), #122 ) ;
#183 = CARTESIAN_POINT ( 'NONE',  ( 13.48290598290599540, 0.0000000000000000000, 0.0000000000000000000 ) ) ;
#184 = DIRECTION ( 'NONE',  ( -1.000000000000000000, -0.0000000000000000000, -0.0000000000000000000 ) ) ;
#185 = ORIENTED_EDGE ( 'NONE', *, *, #86, .F. ) ;
#186 = ORIENTED_EDGE ( 'NONE', *, *, #289, .F. ) ;
#187 = DIRECTION ( 'NONE',  ( 1.000000000000000000, -0.0000000000000000000, -0.0000000000000000000 ) ) ;
#188 = AXIS2_PLACEMENT_3D ( 'NONE', #73, #115, #242 ) ;
#189 = AXIS2_PLACEMENT_3D ( 'NONE', #274, #56, #123 ) ;
#190 = ORIENTED_EDGE ( 'NONE', *, *, #109, .F. ) ;
#191 = EDGE_CURVE ( 'NONE', #262, #230, #270, .T. ) ;
#192 = APPLICATION_PROTOCOL_DEFINITION ( 'draft international standard', 'automotive_design', 1998, #248 ) ;
#193 = DIRECTION ( 'NONE',  ( 0.0000000000000000000, 0.0000000000000000000, -1.000000000000000000 ) ) ;
#194 = PRESENTATION_STYLE_ASSIGNMENT (( #215 ) ) ;
#195 = LINE ( 'NONE', #288, #14 ) ;
#196 = PRODUCT_DEFINITION_FORMATION_WITH_SPECIFIED_SOURCE ( 'ANY', '', #58, .NOT_KNOWN. ) ;
#197 = DIRECTION ( 'NONE',  ( -1.000000000000000000, -0.0000000000000000000, -0.0000000000000000000 ) ) ;
#198 = STYLED_ITEM ( 'NONE', ( #194 ), #74 ) ;
#199 = AXIS2_PLACEMENT_3D ( 'NONE', #126, #276, #125 ) ;
#200 = EDGE_CURVE ( 'NONE', #277, #264, #313, .T. ) ;
#201 = CARTESIAN_POINT ( 'NONE',  ( 13.98290598290599718, 5.510910596163081667E-16, 4.499999999999993783 ) ) ;
#202 = CARTESIAN_POINT ( 'NONE',  ( 13.98290598290599718, 0.0000000000000000000, 0.0000000000000000000 ) ) ;
#203 = CARTESIAN_POINT ( 'NONE',  ( -6.017094017094014369, 0.0000000000000000000, 4.499999999999997335 ) ) ;
#204 = DIRECTION ( 'NONE',  ( -0.7071067811865474617, 0.0000000000000000000, 0.7071067811865474617 ) ) ;
#205 = CARTESIAN_POINT ( 'NONE',  ( 13.98290598290599718, 0.0000000000000000000, -4.499999999999993783 ) ) ;
#206 = AXIS2_PLACEMENT_3D ( 'NONE', #235, #184, #21 ) ;
#207 = EDGE_CURVE ( 'NONE', #264, #277, #40, .T. ) ;
#208 = ORIENTED_EDGE ( 'NONE', *, *, #141, .T. ) ;
#209 = CARTESIAN_POINT ( 'NONE',  ( -46.22222222222222143, 0.0000000000000000000, 0.0000000000000000000 ) ) ;
#210 = ORIENTED_EDGE ( 'NONE', *, *, #66, .T. ) ;
#211 = ADVANCED_FACE ( 'NONE', ( #154, #296 ), #148, .F. ) ;
#212 = ORIENTED_EDGE ( 'NONE', *, *, #191, .T. ) ;
#213 = AXIS2_PLACEMENT_3D ( 'NONE', #237, #78, #223 ) ;
#214 = DIRECTION ( 'NONE',  ( 1.000000000000000000, 0.0000000000000000000, 0.0000000000000000000 ) ) ;
#215 = SURFACE_STYLE_USAGE ( .BOTH. , #118 ) ;
#216 =( NAMED_UNIT ( * ) PLANE_ANGLE_UNIT ( ) SI_UNIT ( $, .RADIAN. ) );
#217 = AXIS2_PLACEMENT_3D ( 'NONE', #209, #112, #36 ) ;
#218 = ORIENTED_EDGE ( 'NONE', *, *, #207, .F. ) ;
#219 = CARTESIAN_POINT ( 'NONE',  ( 13.48290598290599540, 0.0000000000000000000, 0.0000000000000000000 ) ) ;
#220 = ADVANCED_FACE ( 'NONE', ( #153 ), #239, .F. ) ;
#221 = CIRCLE ( 'NONE', #156, 3.999999999999996447 ) ;
#222 = CARTESIAN_POINT ( 'NONE',  ( -6.017094017094014369, 5.510910596163085611E-16, -4.499999999999997335 ) ) ;
#223 = DIRECTION ( 'NONE',  ( 0.0000000000000000000, 0.0000000000000000000, -1.000000000000000000 ) ) ;
#224 = ORIENTED_EDGE ( 'NONE', *, *, #168, .T. ) ;
#225 = AXIS2_PLACEMENT_3D ( 'NONE', #50, #214, #309 ) ;
#226 = AXIS2_PLACEMENT_3D ( 'NONE', #202, #227, #102 ) ;
#227 = DIRECTION ( 'NONE',  ( -1.000000000000000000, -0.0000000000000000000, -0.0000000000000000000 ) ) ;
#228 = ORIENTED_EDGE ( 'NONE', *, *, #28, .T. ) ;
#229 = PLANE ( 'NONE',  #283 ) ;
#230 = VERTEX_POINT ( 'NONE', #83 ) ;
#231 = ADVANCED_FACE ( 'NONE', ( #34 ), #51, .F. ) ;
#232 = ORIENTED_EDGE ( 'NONE', *, *, #7, .F. ) ;
#233 = CARTESIAN_POINT ( 'NONE',  ( -46.22222222222222143, 4.898587196589408884E-16, -3.999999999999996447 ) ) ;
#234 = EDGE_LOOP ( 'NONE', ( #17, #224 ) ) ;
#235 = CARTESIAN_POINT ( 'NONE',  ( -46.22222222222222143, 0.0000000000000000000, 0.0000000000000000000 ) ) ;
#236 = CARTESIAN_POINT ( 'NONE',  ( -5.517094017094013481, 4.898587196589408884E-16, -3.999999999999996447 ) ) ;
#237 = CARTESIAN_POINT ( 'NONE',  ( -5.517094017094013481, 0.0000000000000000000, 0.0000000000000000000 ) ) ;
#238 = DIRECTION ( 'NONE',  ( 0.0000000000000000000, 0.0000000000000000000, 1.000000000000000000 ) ) ;
#239 = CONICAL_SURFACE ( 'NONE', #301, 3.999999999999996447, 0.7853981633974482790 ) ;
#240 = DIRECTION ( 'NONE',  ( -0.7071067811865474617, 8.659560562354932858E-17, -0.7071067811865474617 ) ) ;
#241 = FILL_AREA_STYLE ('',( #99 ) ) ;
#242 = DIRECTION ( 'NONE',  ( 0.0000000000000000000, 0.0000000000000000000, 1.000000000000000000 ) ) ;
#243 = CIRCLE ( 'NONE', #213, 3.999999999999996447 ) ;
#244 = EDGE_CURVE ( 'NONE', #44, #65, #221, .T. ) ;
#245 =( NAMED_UNIT ( * ) SI_UNIT ( $, .STERADIAN. ) SOLID_ANGLE_UNIT ( ) );
#246 = DIRECTION ( 'NONE',  ( -1.000000000000000000, 0.0000000000000000000, -0.0000000000000000000 ) ) ;
#247 = CARTESIAN_POINT ( 'NONE',  ( -5.517094017094013481, 0.0000000000000000000, 0.0000000000000000000 ) ) ;
#248 = APPLICATION_CONTEXT ( 'automotive_design' ) ;
#249 = ORIENTED_EDGE ( 'NONE', *, *, #200, .F. ) ;
#250 = AXIS2_PLACEMENT_3D ( 'NONE', #104, #54, #268 ) ;
#251 = CARTESIAN_POINT ( 'NONE',  ( 13.98290598290599718, 10.99999999999999645, 0.0000000000000000000 ) ) ;
#252 = EDGE_LOOP ( 'NONE', ( #212, #59, #159, #255 ) ) ;
#253 = ADVANCED_FACE ( 'NONE', ( #41 ), #64, .T. ) ;
#254 = DIRECTION ( 'NONE',  ( -1.000000000000000000, -0.0000000000000000000, -0.0000000000000000000 ) ) ;
#255 = ORIENTED_EDGE ( 'NONE', *, *, #130, .F. ) ;
#256 = FILL_AREA_STYLE_COLOUR ( '', #87 ) ;
#257 = ORIENTED_EDGE ( 'NONE', *, *, #191, .F. ) ;
#258 = AXIS2_PLACEMENT_3D ( 'NONE', #183, #187, #279 ) ;
#259 = DIRECTION ( 'NONE',  ( -1.000000000000000000, -0.0000000000000000000, -0.0000000000000000000 ) ) ;
#260 = ORIENTED_EDGE ( 'NONE', *, *, #66, .F. ) ;
#261 = PRESENTATION_STYLE_ASSIGNMENT (( #67 ) ) ;
#262 = VERTEX_POINT ( 'NONE', #110 ) ;
#263 = CARTESIAN_POINT ( 'NONE',  ( 13.98290598290599718, 0.0000000000000000000, 0.0000000000000000000 ) ) ;
#264 = VERTEX_POINT ( 'NONE', #70 ) ;
#265 = PRESENTATION_LAYER_ASSIGNMENT (  '', '', ( #98 ) ) ;
#266 = EDGE_CURVE ( 'NONE', #160, #267, #140, .T. ) ;
#267 = VERTEX_POINT ( 'NONE', #299 ) ;
#268 = DIRECTION ( 'NONE',  ( 0.0000000000000000000, 0.0000000000000000000, 1.000000000000000000 ) ) ;
#269 = EDGE_CURVE ( 'NONE', #230, #262, #307, .T. ) ;
#270 = CIRCLE ( 'NONE', #32, 3.999999999999996447 ) ;
#271 = LINE ( 'NONE', #60, #147 ) ;
#272 = CONICAL_SURFACE ( 'NONE', #39, 4.499999999999993783, 0.7853981633974447263 ) ;
#273 = CIRCLE ( 'NONE', #77, 4.499999999999993783 ) ;
#274 = CARTESIAN_POINT ( 'NONE',  ( 13.98290598290599718, 0.0000000000000000000, 0.0000000000000000000 ) ) ;
#275 = DIRECTION ( 'NONE',  ( 0.0000000000000000000, 0.0000000000000000000, -1.000000000000000000 ) ) ;
#276 = DIRECTION ( 'NONE',  ( -1.000000000000000000, 0.0000000000000000000, 0.0000000000000000000 ) ) ;
#277 = VERTEX_POINT ( 'NONE', #114 ) ;
#278 = AXIS2_PLACEMENT_3D ( 'NONE', #92, #308, #238 ) ;
#279 = DIRECTION ( 'NONE',  ( 0.0000000000000000000, 0.0000000000000000000, 1.000000000000000000 ) ) ;
#280 = ORIENTED_EDGE ( 'NONE', *, *, #269, .F. ) ;
#281 = DIRECTION ( 'NONE',  ( 0.0000000000000000000, 0.0000000000000000000, 1.000000000000000000 ) ) ;
#282 = ORIENTED_EDGE ( 'NONE', *, *, #244, .T. ) ;
#283 = AXIS2_PLACEMENT_3D ( 'NONE', #251, #246, #9 ) ;
#284 =( NAMED_UNIT ( * ) SI_UNIT ( $, .STERADIAN. ) SOLID_ANGLE_UNIT ( ) );
#285 = ORIENTED_EDGE ( 'NONE', *, *, #168, .F. ) ;
#286 = FACE_OUTER_BOUND ( 'NONE', #252, .T. ) ;
#287 = EDGE_LOOP ( 'NONE', ( #190, #46, #113, #180 ) ) ;
#288 = CARTESIAN_POINT ( 'NONE',  ( -46.22222222222222143, 0.0000000000000000000, 10.99999999999999645 ) ) ;
#289 = EDGE_CURVE ( 'NONE', #311, #82, #177, .T. ) ;
#290 = ADVANCED_FACE ( 'NONE', ( #286 ), #164, .F. ) ;
#291 = CARTESIAN_POINT ( 'NONE',  ( -5.517094017094013481, 0.0000000000000000000, 3.999999999999996447 ) ) ;
#292 = ORIENTED_EDGE ( 'NONE', *, *, #266, .F. ) ;
#293 = CARTESIAN_POINT ( 'NONE',  ( 13.98290598290599718, 0.0000000000000000000, 0.0000000000000000000 ) ) ;
#294 = LINE ( 'NONE', #30, #162 ) ;
#295 =( GEOMETRIC_REPRESENTATION_CONTEXT ( 3 ) GLOBAL_UNCERTAINTY_ASSIGNED_CONTEXT ( ( #53 ) ) GLOBAL_UNIT_ASSIGNED_CONTEXT ( ( #49, #216, #245 ) ) REPRESENTATION_CONTEXT ( 'NONE', 'WORKASPACE' ) );
#296 = FACE_OUTER_BOUND ( 'NONE', #111, .T. ) ;
#297 = EDGE_CURVE ( 'NONE', #230, #65, #303, .T. ) ;
#298 = DIRECTION ( 'NONE',  ( 0.0000000000000000000, 0.0000000000000000000, 1.000000000000000000 ) ) ;
#299 = CARTESIAN_POINT ( 'NONE',  ( -6.017094017094014369, 1.347111479062088010E-15, -10.99999999999999645 ) ) ;
#300 = ORIENTED_EDGE ( 'NONE', *, *, #120, .T. ) ;
#301 = AXIS2_PLACEMENT_3D ( 'NONE', #247, #31, #298 ) ;
#302 = EDGE_LOOP ( 'NONE', ( #257, #138, #186, #135 ) ) ;
#303 = LINE ( 'NONE', #233, #4 ) ;
#304 = ORIENTED_EDGE ( 'NONE', *, *, #152, .F. ) ;
#305 =( LENGTH_UNIT ( ) NAMED_UNIT ( * ) SI_UNIT ( .MILLI., .METRE. ) );
#306 = ORIENTED_EDGE ( 'NONE', *, *, #244, .F. ) ;
#307 = CIRCLE ( 'NONE', #258, 3.999999999999996447 ) ;
#308 = DIRECTION ( 'NONE',  ( -1.000000000000000000, -0.0000000000000000000, -0.0000000000000000000 ) ) ;
#309 = DIRECTION ( 'NONE',  ( 0.0000000000000000000, 0.0000000000000000000, -1.000000000000000000 ) ) ;
#310 = EDGE_CURVE ( 'NONE', #90, #171, #129, .T. ) ;
#311 = VERTEX_POINT ( 'NONE', #205 ) ;
#312 = CARTESIAN_POINT ( 'NONE',  ( 0.0000000000000000000, 0.0000000000000000000, 0.0000000000000000000 ) ) ;
#313 = CIRCLE ( 'NONE', #250, 10.99999999999999645 ) ;
#314 = EDGE_LOOP ( 'NONE', ( #260, #306, #300, #12 ) ) ;
ENDSEC;
END-ISO-10303-21;
