ISO-10303-21;
HEADER;
FILE_DESCRIPTION (( 'STEP AP214' ),
    '1' );
FILE_NAME ('BRM 14x3.step',
    '2020-09-08T10:22:28',
    ( '' ),
    ( '' ),
    'SwSTEP 2.0',
    'SolidWorks 2020',
    '' );
FILE_SCHEMA (( 'AUTOMOTIVE_DESIGN' ));
ENDSEC;

DATA;
#1 =( NAMED_UNIT ( * ) PLANE_ANGLE_UNIT ( ) SI_UNIT ( $, .RADIAN. ) );
#2 = CONICAL_SURFACE ( 'NONE', #48, 7.000000000000000000, 0.7853981633974473908 ) ;
#3 = EDGE_CURVE ( 'NONE', #94, #64, #132, .T. ) ;
#4 = DIRECTION ( 'NONE',  ( -1.000000000000000000, -0.0000000000000000000, -0.0000000000000000000 ) ) ;
#5 = CARTESIAN_POINT ( 'NONE',  ( -5.517094017094013481, 0.0000000000000000000, 0.0000000000000000000 ) ) ;
#6 = PRESENTATION_LAYER_ASSIGNMENT (  '', '', ( #32 ) ) ;
#7 = ADVANCED_FACE ( 'NONE', ( #30 ), #55, .F. ) ;
#8 = EDGE_LOOP ( 'NONE', ( #130, #243, #219, #24 ) ) ;
#9 = ORIENTED_EDGE ( 'NONE', *, *, #259, .F. ) ;
#10 = PRODUCT ( 'BRM 14x3', 'BRM 14x3', '', ( #177 ) ) ;
#11 = LINE ( 'NONE', #57, #281 ) ;
#12 = CYLINDRICAL_SURFACE ( 'NONE', #312, 15.00000000000000000 ) ;
#13 = CARTESIAN_POINT ( 'NONE',  ( -46.22222222222222143, 0.0000000000000000000, 0.0000000000000000000 ) ) ;
#14 = CYLINDRICAL_SURFACE ( 'NONE', #16, 7.000000000000000000 ) ;
#15 = EDGE_CURVE ( 'NONE', #146, #216, #265, .T. ) ;
#16 = AXIS2_PLACEMENT_3D ( 'NONE', #13, #102, #252 ) ;
#17 = DIRECTION ( 'NONE',  ( -0.7071067811865482389, 8.659560562354927928E-17, -0.7071067811865469066 ) ) ;
#18 =( LENGTH_UNIT ( ) NAMED_UNIT ( * ) SI_UNIT ( .MILLI., .METRE. ) );
#19 = APPLICATION_PROTOCOL_DEFINITION ( 'draft international standard', 'automotive_design', 1998, #300 ) ;
#20 = EDGE_CURVE ( 'NONE', #169, #214, #77, .T. ) ;
#21 = ORIENTED_EDGE ( 'NONE', *, *, #61, .F. ) ;
#22 = EDGE_LOOP ( 'NONE', ( #233, #131 ) ) ;
#23 = DIRECTION ( 'NONE',  ( 1.000000000000000000, 0.0000000000000000000, 0.0000000000000000000 ) ) ;
#24 = ORIENTED_EDGE ( 'NONE', *, *, #174, .F. ) ;
#25 =( GEOMETRIC_REPRESENTATION_CONTEXT ( 3 ) GLOBAL_UNCERTAINTY_ASSIGNED_CONTEXT ( ( #284 ) ) GLOBAL_UNIT_ASSIGNED_CONTEXT ( ( #18, #232, #208 ) ) REPRESENTATION_CONTEXT ( 'NONE', 'WORKASPACE' ) );
#26 = ORIENTED_EDGE ( 'NONE', *, *, #259, .T. ) ;
#27 = CARTESIAN_POINT ( 'NONE',  ( 21.98290598290599007, 0.0000000000000000000, 0.0000000000000000000 ) ) ;
#28 = ORIENTED_EDGE ( 'NONE', *, *, #179, .F. ) ;
#29 = ORIENTED_EDGE ( 'NONE', *, *, #179, .T. ) ;
#30 = FACE_OUTER_BOUND ( 'NONE', #240, .T. ) ;
#31 = CARTESIAN_POINT ( 'NONE',  ( -5.517094017094013481, 8.572527594031473190E-16, -7.000000000000000000 ) ) ;
#32 = STYLED_ITEM ( 'NONE', ( #237 ), #255 ) ;
#33 = CARTESIAN_POINT ( 'NONE',  ( 21.98290598290599007, 0.0000000000000000000, 15.00000000000000000 ) ) ;
#34 = DIRECTION ( 'NONE',  ( -1.000000000000000000, -0.0000000000000000000, -0.0000000000000000000 ) ) ;
#35 = FACE_OUTER_BOUND ( 'NONE', #245, .T. ) ;
#36 = CIRCLE ( 'NONE', #195, 7.000000000000000000 ) ;
#37 = DIRECTION ( 'NONE',  ( 0.0000000000000000000, 0.0000000000000000000, -1.000000000000000000 ) ) ;
#38 = CARTESIAN_POINT ( 'NONE',  ( -6.017094017094014369, 0.0000000000000000000, 7.500000000000000000 ) ) ;
#39 = ORIENTED_EDGE ( 'NONE', *, *, #58, .T. ) ;
#40 =( LENGTH_UNIT ( ) NAMED_UNIT ( * ) SI_UNIT ( .MILLI., .METRE. ) );
#41 = PLANE ( 'NONE',  #100 ) ;
#42 = CARTESIAN_POINT ( 'NONE',  ( -6.017094017094014369, 0.0000000000000000000, 0.0000000000000000000 ) ) ;
#43 = AXIS2_PLACEMENT_3D ( 'NONE', #274, #176, #54 ) ;
#44 = EDGE_CURVE ( 'NONE', #282, #286, #260, .T. ) ;
#45 = DIRECTION ( 'NONE',  ( 0.0000000000000000000, 0.0000000000000000000, -1.000000000000000000 ) ) ;
#46 = DIRECTION ( 'NONE',  ( 0.0000000000000000000, 0.0000000000000000000, 1.000000000000000000 ) ) ;
#47 = ORIENTED_EDGE ( 'NONE', *, *, #138, .T. ) ;
#48 = AXIS2_PLACEMENT_3D ( 'NONE', #5, #96, #190 ) ;
#49 = PRODUCT_DEFINITION_FORMATION_WITH_SPECIFIED_SOURCE ( 'ANY', '', #10, .NOT_KNOWN. ) ;
#50 = DIRECTION ( 'NONE',  ( 0.7071067811865456854, 8.659560562354955045E-17, 0.7071067811865493491 ) ) ;
#51 = ADVANCED_FACE ( 'NONE', ( #244 ), #121, .F. ) ;
#52 = APPLICATION_CONTEXT ( 'automotive_design' ) ;
#53 = CARTESIAN_POINT ( 'NONE',  ( -6.017094017094014369, 1.836970198721029589E-15, -15.00000000000000000 ) ) ;
#54 = DIRECTION ( 'NONE',  ( 0.0000000000000000000, 0.0000000000000000000, 1.000000000000000000 ) ) ;
#55 = CONICAL_SURFACE ( 'NONE', #311, 7.500000000000003553, 0.7853981633974509435 ) ;
#56 = VECTOR ( 'NONE', #160, 1000.000000000000000 ) ;
#57 = CARTESIAN_POINT ( 'NONE',  ( -46.22222222222222143, 8.572527594031473190E-16, -7.000000000000000000 ) ) ;
#58 = EDGE_CURVE ( 'NONE', #288, #67, #68, .T. ) ;
#59 = CARTESIAN_POINT ( 'NONE',  ( -46.22222222222222143, 0.0000000000000000000, 0.0000000000000000000 ) ) ;
#60 = DIRECTION ( 'NONE',  ( -1.000000000000000000, -0.0000000000000000000, -0.0000000000000000000 ) ) ;
#61 = EDGE_CURVE ( 'NONE', #64, #94, #118, .T. ) ;
#62 = VECTOR ( 'NONE', #126, 999.9999999999998863 ) ;
#63 = SURFACE_SIDE_STYLE ('',( #239 ) ) ;
#64 = VERTEX_POINT ( 'NONE', #295 ) ;
#65 = PRESENTATION_STYLE_ASSIGNMENT (( #88 ) ) ;
#66 = ORIENTED_EDGE ( 'NONE', *, *, #171, .F. ) ;
#67 = VERTEX_POINT ( 'NONE', #170 ) ;
#68 = CIRCLE ( 'NONE', #123, 7.000000000000000000 ) ;
#69 = SURFACE_STYLE_FILL_AREA ( #310 ) ;
#70 = LINE ( 'NONE', #135, #56 ) ;
#71 = DIRECTION ( 'NONE',  ( 0.0000000000000000000, 0.0000000000000000000, 1.000000000000000000 ) ) ;
#72 = FACE_OUTER_BOUND ( 'NONE', #218, .T. ) ;
#73 = STYLED_ITEM ( 'NONE', ( #65 ), #207 ) ;
#74 = CARTESIAN_POINT ( 'NONE',  ( 21.48290598290599007, 0.0000000000000000000, 0.0000000000000000000 ) ) ;
#75 = CARTESIAN_POINT ( 'NONE',  ( 21.98290598290599007, 9.184850993605153861E-16, 7.500000000000003553 ) ) ;
#76 = ORIENTED_EDGE ( 'NONE', *, *, #20, .T. ) ;
#77 = CIRCLE ( 'NONE', #235, 15.00000000000000000 ) ;
#78 = DIRECTION ( 'NONE',  ( -1.000000000000000000, 0.0000000000000000000, 0.0000000000000000000 ) ) ;
#79 = EDGE_CURVE ( 'NONE', #214, #169, #303, .T. ) ;
#80 = CARTESIAN_POINT ( 'NONE',  ( -46.22222222222222143, 0.0000000000000000000, 7.000000000000000000 ) ) ;
#81 = EDGE_CURVE ( 'NONE', #234, #94, #272, .T. ) ;
#82 = DIRECTION ( 'NONE',  ( 0.0000000000000000000, 0.0000000000000000000, -1.000000000000000000 ) ) ;
#83 = AXIS2_PLACEMENT_3D ( 'NONE', #117, #4, #148 ) ;
#84 = CARTESIAN_POINT ( 'NONE',  ( 21.48290598290599007, 0.0000000000000000000, 7.000000000000000000 ) ) ;
#85 = CARTESIAN_POINT ( 'NONE',  ( -46.22222222222222143, 0.0000000000000000000, 15.00000000000000000 ) ) ;
#86 = VECTOR ( 'NONE', #125, 1000.000000000000000 ) ;
#87 = VECTOR ( 'NONE', #305, 1000.000000000000000 ) ;
#88 = SURFACE_STYLE_USAGE ( .BOTH. , #162 ) ;
#89 = ORIENTED_EDGE ( 'NONE', *, *, #220, .T. ) ;
#90 = ADVANCED_FACE ( 'NONE', ( #72 ), #2, .F. ) ;
#91 = EDGE_LOOP ( 'NONE', ( #314, #110 ) ) ;
#92 = AXIS2_PLACEMENT_3D ( 'NONE', #248, #99, #122 ) ;
#93 = ORIENTED_EDGE ( 'NONE', *, *, #164, .F. ) ;
#94 = VERTEX_POINT ( 'NONE', #293 ) ;
#95 = DIRECTION ( 'NONE',  ( -1.000000000000000000, -0.0000000000000000000, -0.0000000000000000000 ) ) ;
#96 = DIRECTION ( 'NONE',  ( -1.000000000000000000, 0.0000000000000000000, 0.0000000000000000000 ) ) ;
#97 = CARTESIAN_POINT ( 'NONE',  ( -6.017094017094014369, 0.0000000000000000000, 0.0000000000000000000 ) ) ;
#98 = CARTESIAN_POINT ( 'NONE',  ( -5.517094017094013481, 0.0000000000000000000, 0.0000000000000000000 ) ) ;
#99 = DIRECTION ( 'NONE',  ( -1.000000000000000000, -0.0000000000000000000, -0.0000000000000000000 ) ) ;
#100 = AXIS2_PLACEMENT_3D ( 'NONE', #279, #180, #210 ) ;
#101 = CARTESIAN_POINT ( 'NONE',  ( -46.22222222222222143, 0.0000000000000000000, 0.0000000000000000000 ) ) ;
#102 = DIRECTION ( 'NONE',  ( -1.000000000000000000, -0.0000000000000000000, -0.0000000000000000000 ) ) ;
#103 = CARTESIAN_POINT ( 'NONE',  ( -46.22222222222222143, 1.836970198721029589E-15, -15.00000000000000000 ) ) ;
#104 = AXIS2_PLACEMENT_3D ( 'NONE', #155, #78, #82 ) ;
#105 = COLOUR_RGB ( '',0.7921568627450980005, 0.8196078431372548767, 0.9333333333333333481 ) ;
#106 = CARTESIAN_POINT ( 'NONE',  ( -5.517094017094013481, 0.0000000000000000000, 7.000000000000000000 ) ) ;
#107 = ORIENTED_EDGE ( 'NONE', *, *, #164, .T. ) ;
#108 = AXIS2_PLACEMENT_3D ( 'NONE', #188, #291, #267 ) ;
#109 = VECTOR ( 'NONE', #178, 1000.000000000000000 ) ;
#110 = ORIENTED_EDGE ( 'NONE', *, *, #194, .F. ) ;
#111 = DIRECTION ( 'NONE',  ( 0.0000000000000000000, 0.0000000000000000000, -1.000000000000000000 ) ) ;
#112 = AXIS2_PLACEMENT_3D ( 'NONE', #200, #152, #37 ) ;
#113 = EDGE_CURVE ( 'NONE', #234, #119, #36, .T. ) ;
#114 = ORIENTED_EDGE ( 'NONE', *, *, #58, .F. ) ;
#115 =( NAMED_UNIT ( * ) SI_UNIT ( $, .STERADIAN. ) SOLID_ANGLE_UNIT ( ) );
#116 = DIRECTION ( 'NONE',  ( -1.000000000000000000, -0.0000000000000000000, -0.0000000000000000000 ) ) ;
#117 = CARTESIAN_POINT ( 'NONE',  ( 21.98290598290599007, 0.0000000000000000000, 0.0000000000000000000 ) ) ;
#118 = CIRCLE ( 'NONE', #309, 7.500000000000003553 ) ;
#119 = VERTEX_POINT ( 'NONE', #250 ) ;
#120 = DIRECTION ( 'NONE',  ( -1.000000000000000000, -0.0000000000000000000, -0.0000000000000000000 ) ) ;
#121 = CYLINDRICAL_SURFACE ( 'NONE', #184, 7.000000000000000000 ) ;
#122 = DIRECTION ( 'NONE',  ( 0.0000000000000000000, 0.0000000000000000000, 1.000000000000000000 ) ) ;
#123 = AXIS2_PLACEMENT_3D ( 'NONE', #98, #242, #45 ) ;
#124 = AXIS2_PLACEMENT_3D ( 'NONE', #256, #23, #111 ) ;
#125 = DIRECTION ( 'NONE',  ( -1.000000000000000000, -0.0000000000000000000, -0.0000000000000000000 ) ) ;
#126 = DIRECTION ( 'NONE',  ( -0.7071067811865482389, 0.0000000000000000000, 0.7071067811865469066 ) ) ;
#127 = DIRECTION ( 'NONE',  ( 1.000000000000000000, -0.0000000000000000000, -0.0000000000000000000 ) ) ;
#128 = LINE ( 'NONE', #106, #62 ) ;
#129 = ADVANCED_FACE ( 'NONE', ( #35 ), #201, .F. ) ;
#130 = ORIENTED_EDGE ( 'NONE', *, *, #15, .T. ) ;
#131 = ORIENTED_EDGE ( 'NONE', *, *, #44, .T. ) ;
#132 = CIRCLE ( 'NONE', #108, 7.500000000000003553 ) ;
#133 =( NAMED_UNIT ( * ) SI_UNIT ( $, .STERADIAN. ) SOLID_ANGLE_UNIT ( ) );
#134 = ORIENTED_EDGE ( 'NONE', *, *, #81, .T. ) ;
#135 = CARTESIAN_POINT ( 'NONE',  ( 21.98290598290599007, 0.0000000000000000000, -7.500000000000003553 ) ) ;
#136 = ORIENTED_EDGE ( 'NONE', *, *, #79, .F. ) ;
#137 = PRODUCT_DEFINITION_SHAPE ( 'NONE', 'NONE',  #246 ) ;
#138 = EDGE_CURVE ( 'NONE', #67, #288, #271, .T. ) ;
#139 = EDGE_LOOP ( 'NONE', ( #66, #29, #89, #39 ) ) ;
#140 = CIRCLE ( 'NONE', #292, 7.000000000000000000 ) ;
#141 = DIRECTION ( 'NONE',  ( 0.0000000000000000000, 0.0000000000000000000, -1.000000000000000000 ) ) ;
#142 = EDGE_LOOP ( 'NONE', ( #183, #289 ) ) ;
#143 = ADVANCED_FACE ( 'NONE', ( #227 ), #212, .F. ) ;
#144 = DIRECTION ( 'NONE',  ( 1.000000000000000000, 0.0000000000000000000, 0.0000000000000000000 ) ) ;
#145 = EDGE_CURVE ( 'NONE', #67, #282, #223, .T. ) ;
#146 = VERTEX_POINT ( 'NONE', #33 ) ;
#147 = UNCERTAINTY_MEASURE_WITH_UNIT (LENGTH_MEASURE( 1.000000000000000082E-05 ), #285, 'distance_accuracy_value', 'NONE');
#148 = DIRECTION ( 'NONE',  ( 0.0000000000000000000, 0.0000000000000000000, 1.000000000000000000 ) ) ;
#149 = ADVANCED_FACE ( 'NONE', ( #251 ), #277, .T. ) ;
#150 = DIRECTION ( 'NONE',  ( -0.0000000000000000000, 0.0000000000000000000, 1.000000000000000000 ) ) ;
#151 = DIRECTION ( 'NONE',  ( 0.0000000000000000000, 0.0000000000000000000, 1.000000000000000000 ) ) ;
#152 = DIRECTION ( 'NONE',  ( 1.000000000000000000, -0.0000000000000000000, -0.0000000000000000000 ) ) ;
#153 = DIRECTION ( 'NONE',  ( 0.0000000000000000000, 0.0000000000000000000, 1.000000000000000000 ) ) ;
#154 = ADVANCED_FACE ( 'NONE', ( #302, #276 ), #175, .F. ) ;
#155 = CARTESIAN_POINT ( 'NONE',  ( -5.517094017094013481, 0.0000000000000000000, 0.0000000000000000000 ) ) ;
#156 = DIRECTION ( 'NONE',  ( 1.000000000000000000, 0.0000000000000000000, 0.0000000000000000000 ) ) ;
#157 = MECHANICAL_DESIGN_GEOMETRIC_PRESENTATION_REPRESENTATION (  '', ( #73 ), #213 ) ;
#158 = ORIENTED_EDGE ( 'NONE', *, *, #174, .T. ) ;
#159 = ORIENTED_EDGE ( 'NONE', *, *, #236, .F. ) ;
#160 = DIRECTION ( 'NONE',  ( 0.7071067811865456854, 0.0000000000000000000, -0.7071067811865493491 ) ) ;
#161 = CIRCLE ( 'NONE', #124, 7.500000000000000000 ) ;
#162 = SURFACE_SIDE_STYLE ('',( #69 ) ) ;
#163 = ORIENTED_EDGE ( 'NONE', *, *, #220, .F. ) ;
#164 = EDGE_CURVE ( 'NONE', #288, #286, #128, .T. ) ;
#165 = ORIENTED_EDGE ( 'NONE', *, *, #270, .F. ) ;
#166 = AXIS2_PLACEMENT_3D ( 'NONE', #290, #116, #189 ) ;
#167 = ORIENTED_EDGE ( 'NONE', *, *, #81, .F. ) ;
#168 = EDGE_LOOP ( 'NONE', ( #209, #134, #21, #9 ) ) ;
#169 = VERTEX_POINT ( 'NONE', #172 ) ;
#170 = CARTESIAN_POINT ( 'NONE',  ( -5.517094017094013481, 8.572527594031473190E-16, -7.000000000000000000 ) ) ;
#171 = EDGE_CURVE ( 'NONE', #119, #67, #11, .T. ) ;
#172 = CARTESIAN_POINT ( 'NONE',  ( -6.017094017094014369, 0.0000000000000000000, 15.00000000000000000 ) ) ;
#173 = CARTESIAN_POINT ( 'NONE',  ( 21.48290598290599007, 0.0000000000000000000, 0.0000000000000000000 ) ) ;
#174 = EDGE_CURVE ( 'NONE', #146, #169, #202, .T. ) ;
#175 = PLANE ( 'NONE',  #297 ) ;
#176 = DIRECTION ( 'NONE',  ( -1.000000000000000000, 0.0000000000000000000, 0.0000000000000000000 ) ) ;
#177 = PRODUCT_CONTEXT ( 'NONE', #300, 'mechanical' ) ;
#178 = DIRECTION ( 'NONE',  ( -1.000000000000000000, -0.0000000000000000000, -0.0000000000000000000 ) ) ;
#179 = EDGE_CURVE ( 'NONE', #119, #234, #140, .T. ) ;
#180 = DIRECTION ( 'NONE',  ( 1.000000000000000000, 0.0000000000000000000, 0.0000000000000000000 ) ) ;
#181 = ORIENTED_EDGE ( 'NONE', *, *, #145, .F. ) ;
#182 = FILL_AREA_STYLE_COLOUR ( '', #105 ) ;
#183 = ORIENTED_EDGE ( 'NONE', *, *, #61, .T. ) ;
#184 = AXIS2_PLACEMENT_3D ( 'NONE', #215, #95, #71 ) ;
#185 = COLOUR_RGB ( '',0.7921568627450980005, 0.8196078431372548767, 0.9333333333333333481 ) ;
#186 = CARTESIAN_POINT ( 'NONE',  ( -6.017094017094014369, 9.184850993605147944E-16, -7.500000000000000000 ) ) ;
#187 = ORIENTED_EDGE ( 'NONE', *, *, #113, .T. ) ;
#188 = CARTESIAN_POINT ( 'NONE',  ( 21.98290598290599007, 0.0000000000000000000, 0.0000000000000000000 ) ) ;
#189 = DIRECTION ( 'NONE',  ( 0.0000000000000000000, 0.0000000000000000000, 1.000000000000000000 ) ) ;
#190 = DIRECTION ( 'NONE',  ( 0.0000000000000000000, 0.0000000000000000000, 1.000000000000000000 ) ) ;
#191 = DIRECTION ( 'NONE',  ( -1.000000000000000000, -0.0000000000000000000, -0.0000000000000000000 ) ) ;
#192 = UNCERTAINTY_MEASURE_WITH_UNIT (LENGTH_MEASURE( 1.000000000000000082E-05 ), #40, 'distance_accuracy_value', 'NONE');
#193 = DIRECTION ( 'NONE',  ( 0.0000000000000000000, 0.0000000000000000000, 1.000000000000000000 ) ) ;
#194 = EDGE_CURVE ( 'NONE', #216, #146, #266, .T. ) ;
#195 = AXIS2_PLACEMENT_3D ( 'NONE', #74, #253, #151 ) ;
#196 = FACE_OUTER_BOUND ( 'NONE', #8, .T. ) ;
#197 = DIRECTION ( 'NONE',  ( 0.0000000000000000000, 0.0000000000000000000, 1.000000000000000000 ) ) ;
#198 = LINE ( 'NONE', #103, #109 ) ;
#199 = ADVANCED_FACE ( 'NONE', ( #196 ), #12, .T. ) ;
#200 = CARTESIAN_POINT ( 'NONE',  ( 21.98290598290599007, 0.0000000000000000000, 0.0000000000000000000 ) ) ;
#201 = CONICAL_SURFACE ( 'NONE', #43, 7.000000000000000000, 0.7853981633974473908 ) ;
#202 = LINE ( 'NONE', #85, #86 ) ;
#203 = APPLICATION_PROTOCOL_DEFINITION ( 'draft international standard', 'automotive_design', 1998, #52 ) ;
#204 = FILL_AREA_STYLE_COLOUR ( '', #185 ) ;
#205 = EDGE_LOOP ( 'NONE', ( #159, #238, #158, #136 ) ) ;
#206 = PRESENTATION_LAYER_ASSIGNMENT (  '', '', ( #73 ) ) ;
#207 = ADVANCED_BREP_SHAPE_REPRESENTATION ( 'BRM 14x3', ( #255, #229 ), #25 ) ;
#208 =( NAMED_UNIT ( * ) SI_UNIT ( $, .STERADIAN. ) SOLID_ANGLE_UNIT ( ) );
#209 = ORIENTED_EDGE ( 'NONE', *, *, #113, .F. ) ;
#210 = DIRECTION ( 'NONE',  ( 0.0000000000000000000, 0.0000000000000000000, -1.000000000000000000 ) ) ;
#211 = ORIENTED_EDGE ( 'NONE', *, *, #44, .F. ) ;
#212 = CONICAL_SURFACE ( 'NONE', #112, 7.500000000000003553, 0.7853981633974509435 ) ;
#213 =( GEOMETRIC_REPRESENTATION_CONTEXT ( 3 ) GLOBAL_UNCERTAINTY_ASSIGNED_CONTEXT ( ( #192 ) ) GLOBAL_UNIT_ASSIGNED_CONTEXT ( ( #40, #1, #115 ) ) REPRESENTATION_CONTEXT ( 'NONE', 'WORKASPACE' ) );
#214 = VERTEX_POINT ( 'NONE', #53 ) ;
#215 = CARTESIAN_POINT ( 'NONE',  ( -46.22222222222222143, 0.0000000000000000000, 0.0000000000000000000 ) ) ;
#216 = VERTEX_POINT ( 'NONE', #304 ) ;
#217 = AXIS2_PLACEMENT_3D ( 'NONE', #42, #144, #141 ) ;
#218 = EDGE_LOOP ( 'NONE', ( #241, #262, #165, #93 ) ) ;
#219 = ORIENTED_EDGE ( 'NONE', *, *, #20, .F. ) ;
#220 = EDGE_CURVE ( 'NONE', #234, #288, #301, .T. ) ;
#221 = ORIENTED_EDGE ( 'NONE', *, *, #3, .F. ) ;
#222 = VECTOR ( 'NONE', #17, 999.9999999999998863 ) ;
#223 = LINE ( 'NONE', #31, #222 ) ;
#224 = ADVANCED_FACE ( 'NONE', ( #225 ), #14, .F. ) ;
#225 = FACE_OUTER_BOUND ( 'NONE', #139, .T. ) ;
#226 = DIRECTION ( 'NONE',  ( 0.0000000000000000000, 0.0000000000000000000, 1.000000000000000000 ) ) ;
#227 = FACE_OUTER_BOUND ( 'NONE', #168, .T. ) ;
#228 = CLOSED_SHELL ( 'NONE', ( #143, #90, #51, #199, #306, #149, #154, #224, #129, #7 ) ) ;
#229 = AXIS2_PLACEMENT_3D ( 'NONE', #231, #280, #156 ) ;
#230 = FILL_AREA_STYLE ('',( #204 ) ) ;
#231 = CARTESIAN_POINT ( 'NONE',  ( 0.0000000000000000000, 0.0000000000000000000, 0.0000000000000000000 ) ) ;
#232 =( NAMED_UNIT ( * ) PLANE_ANGLE_UNIT ( ) SI_UNIT ( $, .RADIAN. ) );
#233 = ORIENTED_EDGE ( 'NONE', *, *, #270, .T. ) ;
#234 = VERTEX_POINT ( 'NONE', #84 ) ;
#235 = AXIS2_PLACEMENT_3D ( 'NONE', #97, #191, #46 ) ;
#236 = EDGE_CURVE ( 'NONE', #216, #214, #198, .T. ) ;
#237 = PRESENTATION_STYLE_ASSIGNMENT (( #287 ) ) ;
#238 = ORIENTED_EDGE ( 'NONE', *, *, #194, .T. ) ;
#239 = SURFACE_STYLE_FILL_AREA ( #230 ) ;
#240 = EDGE_LOOP ( 'NONE', ( #167, #28, #26, #221 ) ) ;
#241 = ORIENTED_EDGE ( 'NONE', *, *, #138, .F. ) ;
#242 = DIRECTION ( 'NONE',  ( -1.000000000000000000, 0.0000000000000000000, 0.0000000000000000000 ) ) ;
#243 = ORIENTED_EDGE ( 'NONE', *, *, #236, .T. ) ;
#244 = FACE_OUTER_BOUND ( 'NONE', #269, .T. ) ;
#245 = EDGE_LOOP ( 'NONE', ( #181, #114, #107, #211 ) ) ;
#246 = PRODUCT_DEFINITION ( 'UNKNOWN', '', #49, #263 ) ;
#247 = DIRECTION ( 'NONE',  ( 1.000000000000000000, -0.0000000000000000000, -0.0000000000000000000 ) ) ;
#248 = CARTESIAN_POINT ( 'NONE',  ( 21.98290598290599007, 0.0000000000000000000, 0.0000000000000000000 ) ) ;
#249 =( GEOMETRIC_REPRESENTATION_CONTEXT ( 3 ) GLOBAL_UNCERTAINTY_ASSIGNED_CONTEXT ( ( #147 ) ) GLOBAL_UNIT_ASSIGNED_CONTEXT ( ( #285, #307, #133 ) ) REPRESENTATION_CONTEXT ( 'NONE', 'WORKASPACE' ) );
#250 = CARTESIAN_POINT ( 'NONE',  ( 21.48290598290599007, 8.572527594031473190E-16, -7.000000000000000000 ) ) ;
#251 = FACE_OUTER_BOUND ( 'NONE', #205, .T. ) ;
#252 = DIRECTION ( 'NONE',  ( 0.0000000000000000000, 0.0000000000000000000, 1.000000000000000000 ) ) ;
#253 = DIRECTION ( 'NONE',  ( 1.000000000000000000, -0.0000000000000000000, -0.0000000000000000000 ) ) ;
#254 = AXIS2_PLACEMENT_3D ( 'NONE', #59, #34, #153 ) ;
#255 = MANIFOLD_SOLID_BREP ( 'Chamfer1', #228 ) ;
#256 = CARTESIAN_POINT ( 'NONE',  ( -6.017094017094014369, 0.0000000000000000000, 0.0000000000000000000 ) ) ;
#257 = ORIENTED_EDGE ( 'NONE', *, *, #79, .T. ) ;
#258 = FACE_OUTER_BOUND ( 'NONE', #296, .T. ) ;
#259 = EDGE_CURVE ( 'NONE', #119, #64, #70, .T. ) ;
#260 = CIRCLE ( 'NONE', #217, 7.500000000000000000 ) ;
#261 = FACE_BOUND ( 'NONE', #22, .T. ) ;
#262 = ORIENTED_EDGE ( 'NONE', *, *, #145, .T. ) ;
#263 = PRODUCT_DEFINITION_CONTEXT ( 'detailed design', #52, 'design' ) ;
#264 = DIRECTION ( 'NONE',  ( 0.0000000000000000000, 0.0000000000000000000, -1.000000000000000000 ) ) ;
#265 = CIRCLE ( 'NONE', #83, 15.00000000000000000 ) ;
#266 = CIRCLE ( 'NONE', #92, 15.00000000000000000 ) ;
#267 = DIRECTION ( 'NONE',  ( 0.0000000000000000000, 0.0000000000000000000, 1.000000000000000000 ) ) ;
#268 = CARTESIAN_POINT ( 'NONE',  ( 21.98290598290599007, 0.0000000000000000000, 0.0000000000000000000 ) ) ;
#269 = EDGE_LOOP ( 'NONE', ( #187, #313, #47, #163 ) ) ;
#270 = EDGE_CURVE ( 'NONE', #286, #282, #161, .T. ) ;
#271 = CIRCLE ( 'NONE', #104, 7.000000000000000000 ) ;
#272 = LINE ( 'NONE', #75, #275 ) ;
#273 = CARTESIAN_POINT ( 'NONE',  ( 21.98290598290599007, 15.00000000000000000, 0.0000000000000000000 ) ) ;
#274 = CARTESIAN_POINT ( 'NONE',  ( -5.517094017094013481, 0.0000000000000000000, 0.0000000000000000000 ) ) ;
#275 = VECTOR ( 'NONE', #50, 1000.000000000000000 ) ;
#276 = FACE_OUTER_BOUND ( 'NONE', #91, .T. ) ;
#277 = CYLINDRICAL_SURFACE ( 'NONE', #254, 15.00000000000000000 ) ;
#278 = DIRECTION ( 'NONE',  ( -1.000000000000000000, 0.0000000000000000000, -0.0000000000000000000 ) ) ;
#279 = CARTESIAN_POINT ( 'NONE',  ( -6.017094017094014369, 7.000000000000000000, 0.0000000000000000000 ) ) ;
#280 = DIRECTION ( 'NONE',  ( 0.0000000000000000000, 0.0000000000000000000, 1.000000000000000000 ) ) ;
#281 = VECTOR ( 'NONE', #60, 1000.000000000000000 ) ;
#282 = VERTEX_POINT ( 'NONE', #186 ) ;
#283 = CARTESIAN_POINT ( 'NONE',  ( -5.517094017094013481, 0.0000000000000000000, 7.000000000000000000 ) ) ;
#284 = UNCERTAINTY_MEASURE_WITH_UNIT (LENGTH_MEASURE( 1.000000000000000082E-05 ), #18, 'distance_accuracy_value', 'NONE');
#285 =( LENGTH_UNIT ( ) NAMED_UNIT ( * ) SI_UNIT ( .MILLI., .METRE. ) );
#286 = VERTEX_POINT ( 'NONE', #38 ) ;
#287 = SURFACE_STYLE_USAGE ( .BOTH. , #63 ) ;
#288 = VERTEX_POINT ( 'NONE', #283 ) ;
#289 = ORIENTED_EDGE ( 'NONE', *, *, #3, .T. ) ;
#290 = CARTESIAN_POINT ( 'NONE',  ( -6.017094017094014369, 0.0000000000000000000, 0.0000000000000000000 ) ) ;
#291 = DIRECTION ( 'NONE',  ( -1.000000000000000000, -0.0000000000000000000, -0.0000000000000000000 ) ) ;
#292 = AXIS2_PLACEMENT_3D ( 'NONE', #173, #127, #226 ) ;
#293 = CARTESIAN_POINT ( 'NONE',  ( 21.98290598290599007, 9.184850993605153861E-16, 7.500000000000003553 ) ) ;
#294 = PRODUCT_RELATED_PRODUCT_CATEGORY ( 'part', '', ( #10 ) ) ;
#295 = CARTESIAN_POINT ( 'NONE',  ( 21.98290598290599007, 0.0000000000000000000, -7.500000000000003553 ) ) ;
#296 = EDGE_LOOP ( 'NONE', ( #76, #257 ) ) ;
#297 = AXIS2_PLACEMENT_3D ( 'NONE', #273, #278, #150 ) ;
#298 = MECHANICAL_DESIGN_GEOMETRIC_PRESENTATION_REPRESENTATION (  '', ( #32 ), #249 ) ;
#299 = DIRECTION ( 'NONE',  ( -1.000000000000000000, -0.0000000000000000000, -0.0000000000000000000 ) ) ;
#300 = APPLICATION_CONTEXT ( 'automotive_design' ) ;
#301 = LINE ( 'NONE', #80, #87 ) ;
#302 = FACE_BOUND ( 'NONE', #142, .T. ) ;
#303 = CIRCLE ( 'NONE', #166, 15.00000000000000000 ) ;
#304 = CARTESIAN_POINT ( 'NONE',  ( 21.98290598290599007, 1.836970198721029589E-15, -15.00000000000000000 ) ) ;
#305 = DIRECTION ( 'NONE',  ( -1.000000000000000000, -0.0000000000000000000, -0.0000000000000000000 ) ) ;
#306 = ADVANCED_FACE ( 'NONE', ( #261, #258 ), #41, .F. ) ;
#307 =( NAMED_UNIT ( * ) PLANE_ANGLE_UNIT ( ) SI_UNIT ( $, .RADIAN. ) );
#308 = SHAPE_DEFINITION_REPRESENTATION ( #137, #207 ) ;
#309 = AXIS2_PLACEMENT_3D ( 'NONE', #27, #120, #193 ) ;
#310 = FILL_AREA_STYLE ('',( #182 ) ) ;
#311 = AXIS2_PLACEMENT_3D ( 'NONE', #268, #247, #264 ) ;
#312 = AXIS2_PLACEMENT_3D ( 'NONE', #101, #299, #197 ) ;
#313 = ORIENTED_EDGE ( 'NONE', *, *, #171, .T. ) ;
#314 = ORIENTED_EDGE ( 'NONE', *, *, #15, .F. ) ;
ENDSEC;
END-ISO-10303-21;
