ISO-10303-21;
HEADER;
FILE_DESCRIPTION (( 'STEP AP214' ),
    '1' );
FILE_NAME ('BRM 16x8.step',
    '2020-09-08T10:22:46',
    ( '' ),
    ( '' ),
    'SwSTEP 2.0',
    'SolidWorks 2020',
    '' );
FILE_SCHEMA (( 'AUTOMOTIVE_DESIGN' ));
ENDSEC;

DATA;
#1 = DIRECTION ( 'NONE',  ( 0.0000000000000000000, 0.0000000000000000000, -1.000000000000000000 ) ) ;
#2 = VERTEX_POINT ( 'NONE', #82 ) ;
#3 = ORIENTED_EDGE ( 'NONE', *, *, #312, .T. ) ;
#4 = PRODUCT_RELATED_PRODUCT_CATEGORY ( 'part', '', ( #12 ) ) ;
#5 = ORIENTED_EDGE ( 'NONE', *, *, #262, .F. ) ;
#6 = COLOUR_RGB ( '',0.7921568627450980005, 0.8196078431372548767, 0.9333333333333333481 ) ;
#7 = VERTEX_POINT ( 'NONE', #8 ) ;
#8 = CARTESIAN_POINT ( 'NONE',  ( -5.517094017094007263, 0.0000000000000000000, 8.000000000000000000 ) ) ;
#9 = ADVANCED_FACE ( 'NONE', ( #107 ), #84, .F. ) ;
#10 = LINE ( 'NONE', #156, #250 ) ;
#11 = CONICAL_SURFACE ( 'NONE', #57, 8.500000000000007105, 0.7853981633974552734 ) ;
#12 = PRODUCT ( 'BRM 16x8', 'BRM 16x8', '', ( #166 ) ) ;
#13 = FACE_OUTER_BOUND ( 'NONE', #248, .T. ) ;
#14 = CARTESIAN_POINT ( 'NONE',  ( -6.017094017094014369, 0.0000000000000000000, 0.0000000000000000000 ) ) ;
#15 = DIRECTION ( 'NONE',  ( 0.0000000000000000000, 0.0000000000000000000, 1.000000000000000000 ) ) ;
#16 = AXIS2_PLACEMENT_3D ( 'NONE', #139, #91, #41 ) ;
#17 = PLANE ( 'NONE',  #37 ) ;
#18 =( NAMED_UNIT ( * ) SI_UNIT ( $, .STERADIAN. ) SOLID_ANGLE_UNIT ( ) );
#19 = CIRCLE ( 'NONE', #199, 8.000000000000000000 ) ;
#20 =( GEOMETRIC_REPRESENTATION_CONTEXT ( 3 ) GLOBAL_UNCERTAINTY_ASSIGNED_CONTEXT ( ( #220 ) ) GLOBAL_UNIT_ASSIGNED_CONTEXT ( ( #74, #98, #246 ) ) REPRESENTATION_CONTEXT ( 'NONE', 'WORKASPACE' ) );
#21 = CARTESIAN_POINT ( 'NONE',  ( 25.48290598290597941, 0.0000000000000000000, 0.0000000000000000000 ) ) ;
#22 = CARTESIAN_POINT ( 'NONE',  ( -6.017094017094014369, 0.0000000000000000000, 18.00000000000000000 ) ) ;
#23 = EDGE_CURVE ( 'NONE', #267, #294, #129, .T. ) ;
#24 = CARTESIAN_POINT ( 'NONE',  ( -6.017094017094014369, 0.0000000000000000000, 8.500000000000007105 ) ) ;
#25 = VERTEX_POINT ( 'NONE', #58 ) ;
#26 = PRESENTATION_STYLE_ASSIGNMENT (( #266 ) ) ;
#27 = CONICAL_SURFACE ( 'NONE', #243, 8.000000000000000000, 0.7853981633974482790 ) ;
#28 = ORIENTED_EDGE ( 'NONE', *, *, #134, .T. ) ;
#29 = VERTEX_POINT ( 'NONE', #59 ) ;
#30 = ORIENTED_EDGE ( 'NONE', *, *, #236, .F. ) ;
#31 = ORIENTED_EDGE ( 'NONE', *, *, #80, .T. ) ;
#32 = CIRCLE ( 'NONE', #161, 8.000000000000000000 ) ;
#33 = DIRECTION ( 'NONE',  ( 0.0000000000000000000, 0.0000000000000000000, -1.000000000000000000 ) ) ;
#34 = EDGE_CURVE ( 'NONE', #311, #216, #176, .T. ) ;
#35 = FACE_OUTER_BOUND ( 'NONE', #219, .T. ) ;
#36 = LINE ( 'NONE', #110, #183 ) ;
#37 = AXIS2_PLACEMENT_3D ( 'NONE', #160, #307, #189 ) ;
#38 = AXIS2_PLACEMENT_3D ( 'NONE', #159, #235, #67 ) ;
#39 = CARTESIAN_POINT ( 'NONE',  ( -5.517094017094007263, 9.797174393178825657E-16, -8.000000000000000000 ) ) ;
#40 = FACE_OUTER_BOUND ( 'NONE', #95, .T. ) ;
#41 = DIRECTION ( 'NONE',  ( 0.0000000000000000000, 0.0000000000000000000, 1.000000000000000000 ) ) ;
#42 = AXIS2_PLACEMENT_3D ( 'NONE', #302, #298, #175 ) ;
#43 = DIRECTION ( 'NONE',  ( 0.0000000000000000000, 0.0000000000000000000, 1.000000000000000000 ) ) ;
#44 = CARTESIAN_POINT ( 'NONE',  ( -5.517094017094007263, 0.0000000000000000000, 0.0000000000000000000 ) ) ;
#45 = CYLINDRICAL_SURFACE ( 'NONE', #38, 8.000000000000000000 ) ;
#46 = MECHANICAL_DESIGN_GEOMETRIC_PRESENTATION_REPRESENTATION (  '', ( #92 ), #125 ) ;
#47 = FILL_AREA_STYLE_COLOUR ( '', #6 ) ;
#48 = ADVANCED_FACE ( 'NONE', ( #106, #206 ), #234, .F. ) ;
#49 = EDGE_LOOP ( 'NONE', ( #76, #145, #5, #226 ) ) ;
#50 = AXIS2_PLACEMENT_3D ( 'NONE', #181, #231, #108 ) ;
#51 = PRODUCT_DEFINITION_FORMATION_WITH_SPECIFIED_SOURCE ( 'ANY', '', #12, .NOT_KNOWN. ) ;
#52 = DIRECTION ( 'NONE',  ( 0.0000000000000000000, 0.0000000000000000000, 1.000000000000000000 ) ) ;
#53 = EDGE_LOOP ( 'NONE', ( #174, #3 ) ) ;
#54 = ORIENTED_EDGE ( 'NONE', *, *, #23, .T. ) ;
#55 = EDGE_CURVE ( 'NONE', #291, #105, #128, .T. ) ;
#56 = DIRECTION ( 'NONE',  ( 1.000000000000000000, 0.0000000000000000000, 0.0000000000000000000 ) ) ;
#57 = AXIS2_PLACEMENT_3D ( 'NONE', #225, #168, #192 ) ;
#58 = CARTESIAN_POINT ( 'NONE',  ( 25.98290598290598652, 1.040949779275251915E-15, 8.500000000000014211 ) ) ;
#59 = CARTESIAN_POINT ( 'NONE',  ( 25.48290598290597941, 0.0000000000000000000, 8.000000000000000000 ) ) ;
#60 = CARTESIAN_POINT ( 'NONE',  ( -5.517094017094007263, 0.0000000000000000000, 0.0000000000000000000 ) ) ;
#61 = CIRCLE ( 'NONE', #87, 8.000000000000000000 ) ;
#62 = DIRECTION ( 'NONE',  ( -1.000000000000000000, -0.0000000000000000000, -0.0000000000000000000 ) ) ;
#63 = DIRECTION ( 'NONE',  ( -1.000000000000000000, -0.0000000000000000000, -0.0000000000000000000 ) ) ;
#64 = CARTESIAN_POINT ( 'NONE',  ( -5.517094017094007263, 0.0000000000000000000, 8.000000000000000000 ) ) ;
#65 = ADVANCED_FACE ( 'NONE', ( #299 ), #251, .T. ) ;
#66 = VECTOR ( 'NONE', #132, 1000.000000000000114 ) ;
#67 = DIRECTION ( 'NONE',  ( 0.0000000000000000000, 0.0000000000000000000, 1.000000000000000000 ) ) ;
#68 = DIRECTION ( 'NONE',  ( 0.0000000000000000000, 0.0000000000000000000, 1.000000000000000000 ) ) ;
#69 = CARTESIAN_POINT ( 'NONE',  ( 25.98290598290598652, 0.0000000000000000000, -8.500000000000014211 ) ) ;
#70 = PRESENTATION_LAYER_ASSIGNMENT (  '', '', ( #209 ) ) ;
#71 = MECHANICAL_DESIGN_GEOMETRIC_PRESENTATION_REPRESENTATION (  '', ( #209 ), #20 ) ;
#72 = DIRECTION ( 'NONE',  ( 1.000000000000000000, 0.0000000000000000000, 0.0000000000000000000 ) ) ;
#73 = ORIENTED_EDGE ( 'NONE', *, *, #134, .F. ) ;
#74 =( LENGTH_UNIT ( ) NAMED_UNIT ( * ) SI_UNIT ( .MILLI., .METRE. ) );
#75 = ORIENTED_EDGE ( 'NONE', *, *, #258, .T. ) ;
#76 = ORIENTED_EDGE ( 'NONE', *, *, #191, .T. ) ;
#77 = DIRECTION ( 'NONE',  ( 0.0000000000000000000, 0.0000000000000000000, -1.000000000000000000 ) ) ;
#78 = ORIENTED_EDGE ( 'NONE', *, *, #81, .F. ) ;
#79 = PRODUCT_DEFINITION_SHAPE ( 'NONE', 'NONE',  #162 ) ;
#80 = EDGE_CURVE ( 'NONE', #29, #25, #10, .T. ) ;
#81 = EDGE_CURVE ( 'NONE', #25, #271, #259, .T. ) ;
#82 = CARTESIAN_POINT ( 'NONE',  ( -5.517094017094007263, 9.797174393178825657E-16, -8.000000000000000000 ) ) ;
#83 = DIRECTION ( 'NONE',  ( -1.000000000000000000, -0.0000000000000000000, -0.0000000000000000000 ) ) ;
#84 = CYLINDRICAL_SURFACE ( 'NONE', #275, 8.000000000000000000 ) ;
#85 = CARTESIAN_POINT ( 'NONE',  ( 25.98290598290598652, 0.0000000000000000000, 0.0000000000000000000 ) ) ;
#86 = SURFACE_SIDE_STYLE ('',( #303 ) ) ;
#87 = AXIS2_PLACEMENT_3D ( 'NONE', #293, #264, #52 ) ;
#88 = DIRECTION ( 'NONE',  ( 0.0000000000000000000, 0.0000000000000000000, 1.000000000000000000 ) ) ;
#89 = ADVANCED_FACE ( 'NONE', ( #13 ), #113, .F. ) ;
#90 = DIRECTION ( 'NONE',  ( -1.000000000000000000, -0.0000000000000000000, -0.0000000000000000000 ) ) ;
#91 = DIRECTION ( 'NONE',  ( -1.000000000000000000, -0.0000000000000000000, -0.0000000000000000000 ) ) ;
#92 = STYLED_ITEM ( 'NONE', ( #257 ), #151 ) ;
#93 = DIRECTION ( 'NONE',  ( 1.000000000000000000, -0.0000000000000000000, -0.0000000000000000000 ) ) ;
#94 = FACE_OUTER_BOUND ( 'NONE', #171, .T. ) ;
#95 = EDGE_LOOP ( 'NONE', ( #193, #73, #75, #167 ) ) ;
#96 = VECTOR ( 'NONE', #233, 1000.000000000000000 ) ;
#97 = AXIS2_PLACEMENT_3D ( 'NONE', #60, #152, #230 ) ;
#98 =( NAMED_UNIT ( * ) PLANE_ANGLE_UNIT ( ) SI_UNIT ( $, .RADIAN. ) );
#99 = EDGE_LOOP ( 'NONE', ( #144, #247, #148, #297 ) ) ;
#100 = CARTESIAN_POINT ( 'NONE',  ( -6.017094017094014369, 0.0000000000000000000, 0.0000000000000000000 ) ) ;
#101 = EDGE_LOOP ( 'NONE', ( #224, #31, #30, #124 ) ) ;
#102 = SURFACE_SIDE_STYLE ('',( #218 ) ) ;
#103 = ORIENTED_EDGE ( 'NONE', *, *, #178, .T. ) ;
#104 = CIRCLE ( 'NONE', #304, 8.500000000000007105 ) ;
#105 = VERTEX_POINT ( 'NONE', #252 ) ;
#106 = FACE_BOUND ( 'NONE', #274, .T. ) ;
#107 = FACE_OUTER_BOUND ( 'NONE', #119, .T. ) ;
#108 = DIRECTION ( 'NONE',  ( 0.0000000000000000000, 0.0000000000000000000, -1.000000000000000000 ) ) ;
#109 = CIRCLE ( 'NONE', #155, 8.000000000000000000 ) ;
#110 = CARTESIAN_POINT ( 'NONE',  ( -46.22222222222222143, 9.797174393178825657E-16, -8.000000000000000000 ) ) ;
#111 = FILL_AREA_STYLE_COLOUR ( '', #177 ) ;
#112 = CARTESIAN_POINT ( 'NONE',  ( -46.22222222222222143, 0.0000000000000000000, 8.000000000000000000 ) ) ;
#113 = CONICAL_SURFACE ( 'NONE', #97, 8.000000000000000000, 0.7853981633974482790 ) ;
#114 = EDGE_CURVE ( 'NONE', #242, #2, #36, .T. ) ;
#115 = CARTESIAN_POINT ( 'NONE',  ( -6.017094017094014369, 1.040949779275250929E-15, -8.500000000000007105 ) ) ;
#116 = CARTESIAN_POINT ( 'NONE',  ( -6.017094017094014369, 0.0000000000000000000, 0.0000000000000000000 ) ) ;
#117 = DIRECTION ( 'NONE',  ( -0.7071067811865474617, 0.0000000000000000000, 0.7071067811865474617 ) ) ;
#118 =( LENGTH_UNIT ( ) NAMED_UNIT ( * ) SI_UNIT ( .MILLI., .METRE. ) );
#119 = EDGE_LOOP ( 'NONE', ( #198, #256, #123, #28 ) ) ;
#120 = ADVANCED_FACE ( 'NONE', ( #35 ), #232, .F. ) ;
#121 = PRODUCT_DEFINITION_CONTEXT ( 'detailed design', #154, 'design' ) ;
#122 = CARTESIAN_POINT ( 'NONE',  ( 0.0000000000000000000, 0.0000000000000000000, 0.0000000000000000000 ) ) ;
#123 = ORIENTED_EDGE ( 'NONE', *, *, #165, .T. ) ;
#124 = ORIENTED_EDGE ( 'NONE', *, *, #178, .F. ) ;
#125 =( GEOMETRIC_REPRESENTATION_CONTEXT ( 3 ) GLOBAL_UNCERTAINTY_ASSIGNED_CONTEXT ( ( #244 ) ) GLOBAL_UNIT_ASSIGNED_CONTEXT ( ( #283, #214, #18 ) ) REPRESENTATION_CONTEXT ( 'NONE', 'WORKASPACE' ) );
#126 = AXIS2_PLACEMENT_3D ( 'NONE', #122, #289, #72 ) ;
#127 = DIRECTION ( 'NONE',  ( -1.000000000000000000, 0.0000000000000000000, 0.0000000000000000000 ) ) ;
#128 = LINE ( 'NONE', #130, #205 ) ;
#129 = LINE ( 'NONE', #207, #96 ) ;
#130 = CARTESIAN_POINT ( 'NONE',  ( -46.22222222222222143, 2.204364238465235428E-15, -18.00000000000000000 ) ) ;
#131 = CIRCLE ( 'NONE', #308, 18.00000000000000000 ) ;
#132 = DIRECTION ( 'NONE',  ( -0.7071067811865474617, 8.659560562354932858E-17, -0.7071067811865474617 ) ) ;
#133 = CARTESIAN_POINT ( 'NONE',  ( 25.98290598290597941, 0.0000000000000000000, -8.500000000000007105 ) ) ;
#134 = EDGE_CURVE ( 'NONE', #7, #2, #32, .T. ) ;
#135 = CARTESIAN_POINT ( 'NONE',  ( 25.48290598290597941, 9.797174393178825657E-16, -8.000000000000000000 ) ) ;
#136 = AXIS2_PLACEMENT_3D ( 'NONE', #228, #56, #204 ) ;
#137 = CARTESIAN_POINT ( 'NONE',  ( 25.98290598290597941, 0.0000000000000000000, 18.00000000000000000 ) ) ;
#138 = LINE ( 'NONE', #112, #172 ) ;
#139 = CARTESIAN_POINT ( 'NONE',  ( 25.98290598290598652, 0.0000000000000000000, 0.0000000000000000000 ) ) ;
#140 = FILL_AREA_STYLE ('',( #47 ) ) ;
#141 = ORIENTED_EDGE ( 'NONE', *, *, #249, .F. ) ;
#142 = EDGE_CURVE ( 'NONE', #2, #216, #255, .T. ) ;
#143 = APPLICATION_PROTOCOL_DEFINITION ( 'draft international standard', 'automotive_design', 1998, #190 ) ;
#144 = ORIENTED_EDGE ( 'NONE', *, *, #305, .T. ) ;
#145 = ORIENTED_EDGE ( 'NONE', *, *, #55, .T. ) ;
#146 = CARTESIAN_POINT ( 'NONE',  ( -5.517094017094007263, 0.0000000000000000000, 0.0000000000000000000 ) ) ;
#147 = ORIENTED_EDGE ( 'NONE', *, *, #272, .T. ) ;
#148 = ORIENTED_EDGE ( 'NONE', *, *, #292, .T. ) ;
#149 = AXIS2_PLACEMENT_3D ( 'NONE', #116, #310, #43 ) ;
#150 = DIRECTION ( 'NONE',  ( -1.000000000000000000, -0.0000000000000000000, -0.0000000000000000000 ) ) ;
#151 = MANIFOLD_SOLID_BREP ( 'Chamfer1', #182 ) ;
#152 = DIRECTION ( 'NONE',  ( -1.000000000000000000, 0.0000000000000000000, 0.0000000000000000000 ) ) ;
#153 = DIRECTION ( 'NONE',  ( 0.7071067811865426878, 8.659560562354994488E-17, 0.7071067811865524577 ) ) ;
#154 = APPLICATION_CONTEXT ( 'automotive_design' ) ;
#155 = AXIS2_PLACEMENT_3D ( 'NONE', #21, #93, #15 ) ;
#156 = CARTESIAN_POINT ( 'NONE',  ( 25.98290598290597941, 1.040949779275251126E-15, 8.500000000000007105 ) ) ;
#157 = EDGE_CURVE ( 'NONE', #105, #294, #300, .T. ) ;
#158 = ORIENTED_EDGE ( 'NONE', *, *, #236, .T. ) ;
#159 = CARTESIAN_POINT ( 'NONE',  ( -46.22222222222222143, 0.0000000000000000000, 0.0000000000000000000 ) ) ;
#160 = CARTESIAN_POINT ( 'NONE',  ( -6.017094017094014369, 8.000000000000000000, 0.0000000000000000000 ) ) ;
#161 = AXIS2_PLACEMENT_3D ( 'NONE', #279, #127, #33 ) ;
#162 = PRODUCT_DEFINITION ( 'UNKNOWN', '', #51, #121 ) ;
#163 = FACE_OUTER_BOUND ( 'NONE', #101, .T. ) ;
#164 = PRESENTATION_LAYER_ASSIGNMENT (  '', '', ( #92 ) ) ;
#165 = EDGE_CURVE ( 'NONE', #29, #7, #138, .T. ) ;
#166 = PRODUCT_CONTEXT ( 'NONE', #190, 'mechanical' ) ;
#167 = ORIENTED_EDGE ( 'NONE', *, *, #312, .F. ) ;
#168 = DIRECTION ( 'NONE',  ( 1.000000000000000000, -0.0000000000000000000, -0.0000000000000000000 ) ) ;
#169 = ORIENTED_EDGE ( 'NONE', *, *, #258, .F. ) ;
#170 =( NAMED_UNIT ( * ) SI_UNIT ( $, .STERADIAN. ) SOLID_ANGLE_UNIT ( ) );
#171 = EDGE_LOOP ( 'NONE', ( #278, #201 ) ) ;
#172 = VECTOR ( 'NONE', #90, 1000.000000000000000 ) ;
#173 = EDGE_LOOP ( 'NONE', ( #245, #270 ) ) ;
#174 = ORIENTED_EDGE ( 'NONE', *, *, #34, .T. ) ;
#175 = DIRECTION ( 'NONE',  ( -0.0000000000000000000, 0.0000000000000000000, 1.000000000000000000 ) ) ;
#176 = CIRCLE ( 'NONE', #136, 8.500000000000007105 ) ;
#177 = COLOUR_RGB ( '',0.7921568627450980005, 0.8196078431372548767, 0.9333333333333333481 ) ;
#178 = EDGE_CURVE ( 'NONE', #242, #271, #212, .T. ) ;
#179 = CARTESIAN_POINT ( 'NONE',  ( -46.22222222222222143, 0.0000000000000000000, 0.0000000000000000000 ) ) ;
#180 = DIRECTION ( 'NONE',  ( 0.0000000000000000000, 0.0000000000000000000, 1.000000000000000000 ) ) ;
#181 = CARTESIAN_POINT ( 'NONE',  ( 25.98290598290597941, 0.0000000000000000000, 0.0000000000000000000 ) ) ;
#182 = CLOSED_SHELL ( 'NONE', ( #282, #89, #203, #65, #269, #215, #48, #9, #229, #120 ) ) ;
#183 = VECTOR ( 'NONE', #202, 1000.000000000000000 ) ;
#184 = DIRECTION ( 'NONE',  ( -1.000000000000000000, -0.0000000000000000000, -0.0000000000000000000 ) ) ;
#185 = FACE_OUTER_BOUND ( 'NONE', #99, .T. ) ;
#186 = FACE_OUTER_BOUND ( 'NONE', #240, .T. ) ;
#187 = DIRECTION ( 'NONE',  ( -1.000000000000000000, 0.0000000000000000000, 0.0000000000000000000 ) ) ;
#188 =( GEOMETRIC_REPRESENTATION_CONTEXT ( 3 ) GLOBAL_UNCERTAINTY_ASSIGNED_CONTEXT ( ( #197 ) ) GLOBAL_UNIT_ASSIGNED_CONTEXT ( ( #118, #200, #170 ) ) REPRESENTATION_CONTEXT ( 'NONE', 'WORKASPACE' ) );
#189 = DIRECTION ( 'NONE',  ( 0.0000000000000000000, 0.0000000000000000000, -1.000000000000000000 ) ) ;
#190 = APPLICATION_CONTEXT ( 'automotive_design' ) ;
#191 = EDGE_CURVE ( 'NONE', #267, #291, #131, .T. ) ;
#192 = DIRECTION ( 'NONE',  ( 0.0000000000000000000, 0.0000000000000000000, -1.000000000000000000 ) ) ;
#193 = ORIENTED_EDGE ( 'NONE', *, *, #142, .F. ) ;
#194 = AXIS2_PLACEMENT_3D ( 'NONE', #286, #287, #68 ) ;
#195 = ORIENTED_EDGE ( 'NONE', *, *, #80, .F. ) ;
#196 = ORIENTED_EDGE ( 'NONE', *, *, #292, .F. ) ;
#197 = UNCERTAINTY_MEASURE_WITH_UNIT (LENGTH_MEASURE( 1.000000000000000082E-05 ), #118, 'distance_accuracy_value', 'NONE');
#198 = ORIENTED_EDGE ( 'NONE', *, *, #114, .F. ) ;
#199 = AXIS2_PLACEMENT_3D ( 'NONE', #146, #239, #1 ) ;
#200 =( NAMED_UNIT ( * ) PLANE_ANGLE_UNIT ( ) SI_UNIT ( $, .RADIAN. ) );
#201 = ORIENTED_EDGE ( 'NONE', *, *, #157, .T. ) ;
#202 = DIRECTION ( 'NONE',  ( -1.000000000000000000, -0.0000000000000000000, -0.0000000000000000000 ) ) ;
#203 = ADVANCED_FACE ( 'NONE', ( #185 ), #45, .F. ) ;
#204 = DIRECTION ( 'NONE',  ( 0.0000000000000000000, 0.0000000000000000000, -1.000000000000000000 ) ) ;
#205 = VECTOR ( 'NONE', #150, 1000.000000000000000 ) ;
#206 = FACE_OUTER_BOUND ( 'NONE', #173, .T. ) ;
#207 = CARTESIAN_POINT ( 'NONE',  ( -46.22222222222222143, 0.0000000000000000000, 18.00000000000000000 ) ) ;
#208 = FILL_AREA_STYLE ('',( #111 ) ) ;
#209 = STYLED_ITEM ( 'NONE', ( #26 ), #217 ) ;
#210 = DIRECTION ( 'NONE',  ( 0.7071067811865426878, 0.0000000000000000000, -0.7071067811865524577 ) ) ;
#211 = LINE ( 'NONE', #64, #280 ) ;
#212 = LINE ( 'NONE', #133, #254 ) ;
#213 = CIRCLE ( 'NONE', #16, 8.500000000000014211 ) ;
#214 =( NAMED_UNIT ( * ) PLANE_ANGLE_UNIT ( ) SI_UNIT ( $, .RADIAN. ) );
#215 = ADVANCED_FACE ( 'NONE', ( #186 ), #237, .T. ) ;
#216 = VERTEX_POINT ( 'NONE', #115 ) ;
#217 = ADVANCED_BREP_SHAPE_REPRESENTATION ( 'BRM 16x8', ( #151, #126 ), #188 ) ;
#218 = SURFACE_STYLE_FILL_AREA ( #140 ) ;
#219 = EDGE_LOOP ( 'NONE', ( #195, #141, #103, #78 ) ) ;
#220 = UNCERTAINTY_MEASURE_WITH_UNIT (LENGTH_MEASURE( 1.000000000000000082E-05 ), #74, 'distance_accuracy_value', 'NONE');
#221 = SHAPE_DEFINITION_REPRESENTATION ( #79, #217 ) ;
#222 = ORIENTED_EDGE ( 'NONE', *, *, #34, .F. ) ;
#223 = CARTESIAN_POINT ( 'NONE',  ( 25.98290598290597941, 2.204364238465235428E-15, -18.00000000000000000 ) ) ;
#224 = ORIENTED_EDGE ( 'NONE', *, *, #305, .F. ) ;
#225 = CARTESIAN_POINT ( 'NONE',  ( 25.98290598290597941, 0.0000000000000000000, 0.0000000000000000000 ) ) ;
#226 = ORIENTED_EDGE ( 'NONE', *, *, #23, .F. ) ;
#227 = CIRCLE ( 'NONE', #149, 18.00000000000000000 ) ;
#228 = CARTESIAN_POINT ( 'NONE',  ( -6.017094017094014369, 0.0000000000000000000, 0.0000000000000000000 ) ) ;
#229 = ADVANCED_FACE ( 'NONE', ( #40 ), #27, .F. ) ;
#230 = DIRECTION ( 'NONE',  ( 0.0000000000000000000, 0.0000000000000000000, 1.000000000000000000 ) ) ;
#231 = DIRECTION ( 'NONE',  ( 1.000000000000000000, -0.0000000000000000000, -0.0000000000000000000 ) ) ;
#232 = CONICAL_SURFACE ( 'NONE', #50, 8.500000000000007105, 0.7853981633974552734 ) ;
#233 = DIRECTION ( 'NONE',  ( -1.000000000000000000, -0.0000000000000000000, -0.0000000000000000000 ) ) ;
#234 = PLANE ( 'NONE',  #42 ) ;
#235 = DIRECTION ( 'NONE',  ( -1.000000000000000000, -0.0000000000000000000, -0.0000000000000000000 ) ) ;
#236 = EDGE_CURVE ( 'NONE', #271, #25, #213, .T. ) ;
#237 = CYLINDRICAL_SURFACE ( 'NONE', #290, 18.00000000000000000 ) ;
#238 = DIRECTION ( 'NONE',  ( 0.0000000000000000000, 0.0000000000000000000, 1.000000000000000000 ) ) ;
#239 = DIRECTION ( 'NONE',  ( -1.000000000000000000, 0.0000000000000000000, 0.0000000000000000000 ) ) ;
#240 = EDGE_LOOP ( 'NONE', ( #295, #147, #54, #314 ) ) ;
#241 = APPLICATION_PROTOCOL_DEFINITION ( 'draft international standard', 'automotive_design', 1998, #154 ) ;
#242 = VERTEX_POINT ( 'NONE', #135 ) ;
#243 = AXIS2_PLACEMENT_3D ( 'NONE', #44, #187, #309 ) ;
#244 = UNCERTAINTY_MEASURE_WITH_UNIT (LENGTH_MEASURE( 1.000000000000000082E-05 ), #283, 'distance_accuracy_value', 'NONE');
#245 = ORIENTED_EDGE ( 'NONE', *, *, #191, .F. ) ;
#246 =( NAMED_UNIT ( * ) SI_UNIT ( $, .STERADIAN. ) SOLID_ANGLE_UNIT ( ) );
#247 = ORIENTED_EDGE ( 'NONE', *, *, #114, .T. ) ;
#248 = EDGE_LOOP ( 'NONE', ( #196, #273, #222, #169 ) ) ;
#249 = EDGE_CURVE ( 'NONE', #242, #29, #109, .T. ) ;
#250 = VECTOR ( 'NONE', #153, 1000.000000000000000 ) ;
#251 = CYLINDRICAL_SURFACE ( 'NONE', #313, 18.00000000000000000 ) ;
#252 = CARTESIAN_POINT ( 'NONE',  ( -6.017094017094014369, 2.204364238465235428E-15, -18.00000000000000000 ) ) ;
#253 = DIRECTION ( 'NONE',  ( 0.0000000000000000000, 0.0000000000000000000, 1.000000000000000000 ) ) ;
#254 = VECTOR ( 'NONE', #210, 1000.000000000000000 ) ;
#255 = LINE ( 'NONE', #39, #66 ) ;
#256 = ORIENTED_EDGE ( 'NONE', *, *, #249, .T. ) ;
#257 = PRESENTATION_STYLE_ASSIGNMENT (( #281 ) ) ;
#258 = EDGE_CURVE ( 'NONE', #7, #311, #211, .T. ) ;
#259 = CIRCLE ( 'NONE', #265, 8.500000000000014211 ) ;
#260 = CARTESIAN_POINT ( 'NONE',  ( 25.98290598290597941, 0.0000000000000000000, 0.0000000000000000000 ) ) ;
#261 = DIRECTION ( 'NONE',  ( 0.0000000000000000000, 0.0000000000000000000, 1.000000000000000000 ) ) ;
#262 = EDGE_CURVE ( 'NONE', #294, #105, #227, .T. ) ;
#263 = DIRECTION ( 'NONE',  ( -1.000000000000000000, -0.0000000000000000000, -0.0000000000000000000 ) ) ;
#264 = DIRECTION ( 'NONE',  ( 1.000000000000000000, -0.0000000000000000000, -0.0000000000000000000 ) ) ;
#265 = AXIS2_PLACEMENT_3D ( 'NONE', #85, #184, #253 ) ;
#266 = SURFACE_STYLE_USAGE ( .BOTH. , #102 ) ;
#267 = VERTEX_POINT ( 'NONE', #137 ) ;
#268 = ORIENTED_EDGE ( 'NONE', *, *, #81, .T. ) ;
#269 = ADVANCED_FACE ( 'NONE', ( #288, #94 ), #17, .F. ) ;
#270 = ORIENTED_EDGE ( 'NONE', *, *, #272, .F. ) ;
#271 = VERTEX_POINT ( 'NONE', #69 ) ;
#272 = EDGE_CURVE ( 'NONE', #291, #267, #285, .T. ) ;
#273 = ORIENTED_EDGE ( 'NONE', *, *, #142, .T. ) ;
#274 = EDGE_LOOP ( 'NONE', ( #158, #268 ) ) ;
#275 = AXIS2_PLACEMENT_3D ( 'NONE', #179, #62, #277 ) ;
#276 = AXIS2_PLACEMENT_3D ( 'NONE', #14, #306, #261 ) ;
#277 = DIRECTION ( 'NONE',  ( 0.0000000000000000000, 0.0000000000000000000, 1.000000000000000000 ) ) ;
#278 = ORIENTED_EDGE ( 'NONE', *, *, #262, .T. ) ;
#279 = CARTESIAN_POINT ( 'NONE',  ( -5.517094017094007263, 0.0000000000000000000, 0.0000000000000000000 ) ) ;
#280 = VECTOR ( 'NONE', #117, 1000.000000000000114 ) ;
#281 = SURFACE_STYLE_USAGE ( .BOTH. , #86 ) ;
#282 = ADVANCED_FACE ( 'NONE', ( #163 ), #11, .F. ) ;
#283 =( LENGTH_UNIT ( ) NAMED_UNIT ( * ) SI_UNIT ( .MILLI., .METRE. ) );
#284 = CARTESIAN_POINT ( 'NONE',  ( -46.22222222222222143, 0.0000000000000000000, 0.0000000000000000000 ) ) ;
#285 = CIRCLE ( 'NONE', #194, 18.00000000000000000 ) ;
#286 = CARTESIAN_POINT ( 'NONE',  ( 25.98290598290597941, 0.0000000000000000000, 0.0000000000000000000 ) ) ;
#287 = DIRECTION ( 'NONE',  ( -1.000000000000000000, -0.0000000000000000000, -0.0000000000000000000 ) ) ;
#288 = FACE_BOUND ( 'NONE', #53, .T. ) ;
#289 = DIRECTION ( 'NONE',  ( 0.0000000000000000000, 0.0000000000000000000, 1.000000000000000000 ) ) ;
#290 = AXIS2_PLACEMENT_3D ( 'NONE', #284, #263, #238 ) ;
#291 = VERTEX_POINT ( 'NONE', #223 ) ;
#292 = EDGE_CURVE ( 'NONE', #2, #7, #19, .T. ) ;
#293 = CARTESIAN_POINT ( 'NONE',  ( 25.48290598290597941, 0.0000000000000000000, 0.0000000000000000000 ) ) ;
#294 = VERTEX_POINT ( 'NONE', #22 ) ;
#295 = ORIENTED_EDGE ( 'NONE', *, *, #55, .F. ) ;
#296 = DIRECTION ( 'NONE',  ( 1.000000000000000000, 0.0000000000000000000, 0.0000000000000000000 ) ) ;
#297 = ORIENTED_EDGE ( 'NONE', *, *, #165, .F. ) ;
#298 = DIRECTION ( 'NONE',  ( -1.000000000000000000, 0.0000000000000000000, -0.0000000000000000000 ) ) ;
#299 = FACE_OUTER_BOUND ( 'NONE', #49, .T. ) ;
#300 = CIRCLE ( 'NONE', #276, 18.00000000000000000 ) ;
#301 = CARTESIAN_POINT ( 'NONE',  ( -46.22222222222222143, 0.0000000000000000000, 0.0000000000000000000 ) ) ;
#302 = CARTESIAN_POINT ( 'NONE',  ( 25.98290598290598652, 18.00000000000000000, 0.0000000000000000000 ) ) ;
#303 = SURFACE_STYLE_FILL_AREA ( #208 ) ;
#304 = AXIS2_PLACEMENT_3D ( 'NONE', #100, #296, #77 ) ;
#305 = EDGE_CURVE ( 'NONE', #29, #242, #61, .T. ) ;
#306 = DIRECTION ( 'NONE',  ( -1.000000000000000000, -0.0000000000000000000, -0.0000000000000000000 ) ) ;
#307 = DIRECTION ( 'NONE',  ( 1.000000000000000000, 0.0000000000000000000, 0.0000000000000000000 ) ) ;
#308 = AXIS2_PLACEMENT_3D ( 'NONE', #260, #63, #88 ) ;
#309 = DIRECTION ( 'NONE',  ( 0.0000000000000000000, 0.0000000000000000000, 1.000000000000000000 ) ) ;
#310 = DIRECTION ( 'NONE',  ( -1.000000000000000000, -0.0000000000000000000, -0.0000000000000000000 ) ) ;
#311 = VERTEX_POINT ( 'NONE', #24 ) ;
#312 = EDGE_CURVE ( 'NONE', #216, #311, #104, .T. ) ;
#313 = AXIS2_PLACEMENT_3D ( 'NONE', #301, #83, #180 ) ;
#314 = ORIENTED_EDGE ( 'NONE', *, *, #157, .F. ) ;
ENDSEC;
END-ISO-10303-21;
