ISO-10303-21;
HEADER;
FILE_DESCRIPTION (( 'STEP AP214' ),
    '1' );
FILE_NAME ('BRM 10x2.step',
    '2020-09-08T10:22:09',
    ( '' ),
    ( '' ),
    'SwSTEP 2.0',
    'SolidWorks 2020',
    '' );
FILE_SCHEMA (( 'AUTOMOTIVE_DESIGN' ));
ENDSEC;

DATA;
#1 = DIRECTION ( 'NONE',  ( -1.000000000000000000, -0.0000000000000000000, -0.0000000000000000000 ) ) ;
#2 = VERTEX_POINT ( 'NONE', #28 ) ;
#3 = AXIS2_PLACEMENT_3D ( 'NONE', #97, #138, #264 ) ;
#4 = ORIENTED_EDGE ( 'NONE', *, *, #291, .T. ) ;
#5 = FACE_OUTER_BOUND ( 'NONE', #193, .T. ) ;
#6 = ORIENTED_EDGE ( 'NONE', *, *, #9, .F. ) ;
#7 = CARTESIAN_POINT ( 'NONE',  ( 13.98290598290599718, 0.0000000000000000000, 0.0000000000000000000 ) ) ;
#8 = ADVANCED_FACE ( 'NONE', ( #218, #5 ), #262, .F. ) ;
#9 = EDGE_CURVE ( 'NONE', #171, #127, #203, .T. ) ;
#10 = PRESENTATION_STYLE_ASSIGNMENT (( #220 ) ) ;
#11 = AXIS2_PLACEMENT_3D ( 'NONE', #47, #1, #137 ) ;
#12 = FILL_AREA_STYLE_COLOUR ( '', #105 ) ;
#13 = ORIENTED_EDGE ( 'NONE', *, *, #93, .F. ) ;
#14 = ADVANCED_FACE ( 'NONE', ( #186 ), #229, .F. ) ;
#15 = AXIS2_PLACEMENT_3D ( 'NONE', #162, #145, #77 ) ;
#16 = VECTOR ( 'NONE', #163, 1000.000000000000000 ) ;
#17 = ORIENTED_EDGE ( 'NONE', *, *, #93, .T. ) ;
#18 = DIRECTION ( 'NONE',  ( -0.7071067811865444641, 8.659560562354969836E-17, -0.7071067811865505703 ) ) ;
#19 = LINE ( 'NONE', #263, #276 ) ;
#20 = DIRECTION ( 'NONE',  ( 0.0000000000000000000, 0.0000000000000000000, -1.000000000000000000 ) ) ;
#21 = STYLED_ITEM ( 'NONE', ( #10 ), #33 ) ;
#22 = CARTESIAN_POINT ( 'NONE',  ( -46.22222222222222143, 0.0000000000000000000, 10.99999999999999645 ) ) ;
#23 = FACE_OUTER_BOUND ( 'NONE', #221, .T. ) ;
#24 = LINE ( 'NONE', #115, #169 ) ;
#25 = CARTESIAN_POINT ( 'NONE',  ( -5.517094017094020586, 6.123233995736766282E-16, -5.000000000000000000 ) ) ;
#26 = CARTESIAN_POINT ( 'NONE',  ( -5.517094017094020586, 0.0000000000000000000, 0.0000000000000000000 ) ) ;
#27 =( LENGTH_UNIT ( ) NAMED_UNIT ( * ) SI_UNIT ( .MILLI., .METRE. ) );
#28 = CARTESIAN_POINT ( 'NONE',  ( -6.017094017094014369, 0.0000000000000000000, 10.99999999999999645 ) ) ;
#29 = AXIS2_PLACEMENT_3D ( 'NONE', #297, #102, #80 ) ;
#30 = ORIENTED_EDGE ( 'NONE', *, *, #231, .F. ) ;
#31 = ADVANCED_FACE ( 'NONE', ( #212 ), #81, .F. ) ;
#32 = ORIENTED_EDGE ( 'NONE', *, *, #231, .T. ) ;
#33 = ADVANCED_BREP_SHAPE_REPRESENTATION ( 'BRM 10x2', ( #133, #280 ), #156 ) ;
#34 = ORIENTED_EDGE ( 'NONE', *, *, #304, .F. ) ;
#35 = ORIENTED_EDGE ( 'NONE', *, *, #150, .T. ) ;
#36 = ADVANCED_FACE ( 'NONE', ( #290 ), #147, .F. ) ;
#37 = AXIS2_PLACEMENT_3D ( 'NONE', #56, #101, #55 ) ;
#38 = DIRECTION ( 'NONE',  ( -1.000000000000000000, -0.0000000000000000000, -0.0000000000000000000 ) ) ;
#39 = EDGE_LOOP ( 'NONE', ( #17, #167 ) ) ;
#40 = EDGE_CURVE ( 'NONE', #166, #246, #134, .T. ) ;
#41 = AXIS2_PLACEMENT_3D ( 'NONE', #286, #237, #206 ) ;
#42 = CARTESIAN_POINT ( 'NONE',  ( -46.22222222222222143, 0.0000000000000000000, 5.000000000000000000 ) ) ;
#43 = SURFACE_STYLE_FILL_AREA ( #305 ) ;
#44 = AXIS2_PLACEMENT_3D ( 'NONE', #85, #126, #188 ) ;
#45 = CARTESIAN_POINT ( 'NONE',  ( 13.98290598290599007, 0.0000000000000000000, -5.500000000000005329 ) ) ;
#46 = EDGE_CURVE ( 'NONE', #127, #171, #234, .T. ) ;
#47 = CARTESIAN_POINT ( 'NONE',  ( -46.22222222222222143, 0.0000000000000000000, 0.0000000000000000000 ) ) ;
#48 = CARTESIAN_POINT ( 'NONE',  ( 13.48290598290598830, 0.0000000000000000000, 5.000000000000000000 ) ) ;
#49 = DIRECTION ( 'NONE',  ( -1.000000000000000000, -0.0000000000000000000, -0.0000000000000000000 ) ) ;
#50 = VERTEX_POINT ( 'NONE', #236 ) ;
#51 = FACE_OUTER_BOUND ( 'NONE', #285, .T. ) ;
#52 = MECHANICAL_DESIGN_GEOMETRIC_PRESENTATION_REPRESENTATION (  '', ( #21 ), #120 ) ;
#53 = ORIENTED_EDGE ( 'NONE', *, *, #277, .T. ) ;
#54 = PRODUCT_DEFINITION ( 'UNKNOWN', '', #91, #175 ) ;
#55 = DIRECTION ( 'NONE',  ( 0.0000000000000000000, 0.0000000000000000000, 1.000000000000000000 ) ) ;
#56 = CARTESIAN_POINT ( 'NONE',  ( 13.98290598290599718, 0.0000000000000000000, 0.0000000000000000000 ) ) ;
#57 = ORIENTED_EDGE ( 'NONE', *, *, #40, .T. ) ;
#58 = UNCERTAINTY_MEASURE_WITH_UNIT (LENGTH_MEASURE( 1.000000000000000082E-05 ), #165, 'distance_accuracy_value', 'NONE');
#59 = PRESENTATION_LAYER_ASSIGNMENT (  '', '', ( #21 ) ) ;
#60 = ADVANCED_FACE ( 'NONE', ( #51 ), #64, .F. ) ;
#61 = CIRCLE ( 'NONE', #90, 10.99999999999999645 ) ;
#62 = DIRECTION ( 'NONE',  ( 0.0000000000000000000, 0.0000000000000000000, 1.000000000000000000 ) ) ;
#63 = CARTESIAN_POINT ( 'NONE',  ( 13.48290598290598830, 6.123233995736766282E-16, -5.000000000000000000 ) ) ;
#64 = CYLINDRICAL_SURFACE ( 'NONE', #87, 5.000000000000000000 ) ;
#65 = APPLICATION_PROTOCOL_DEFINITION ( 'draft international standard', 'automotive_design', 1998, #135 ) ;
#66 = LINE ( 'NONE', #42, #195 ) ;
#67 = ADVANCED_FACE ( 'NONE', ( #112 ), #209, .F. ) ;
#68 = CARTESIAN_POINT ( 'NONE',  ( 13.98290598290599007, 0.0000000000000000000, 0.0000000000000000000 ) ) ;
#69 = DIRECTION ( 'NONE',  ( -0.7071067811865444641, 0.0000000000000000000, 0.7071067811865505703 ) ) ;
#70 = AXIS2_PLACEMENT_3D ( 'NONE', #68, #190, #294 ) ;
#71 =( GEOMETRIC_REPRESENTATION_CONTEXT ( 3 ) GLOBAL_UNCERTAINTY_ASSIGNED_CONTEXT ( ( #131 ) ) GLOBAL_UNIT_ASSIGNED_CONTEXT ( ( #27, #278, #213 ) ) REPRESENTATION_CONTEXT ( 'NONE', 'WORKASPACE' ) );
#72 = ORIENTED_EDGE ( 'NONE', *, *, #108, .F. ) ;
#73 = SURFACE_STYLE_USAGE ( .BOTH. , #261 ) ;
#74 = CARTESIAN_POINT ( 'NONE',  ( 13.98290598290599007, 0.0000000000000000000, 0.0000000000000000000 ) ) ;
#75 = DIRECTION ( 'NONE',  ( 0.0000000000000000000, 0.0000000000000000000, 1.000000000000000000 ) ) ;
#76 = ORIENTED_EDGE ( 'NONE', *, *, #202, .F. ) ;
#77 = DIRECTION ( 'NONE',  ( -0.0000000000000000000, 0.0000000000000000000, 1.000000000000000000 ) ) ;
#78 = EDGE_CURVE ( 'NONE', #170, #302, #259, .T. ) ;
#79 = DIRECTION ( 'NONE',  ( 0.0000000000000000000, 0.0000000000000000000, 1.000000000000000000 ) ) ;
#80 = DIRECTION ( 'NONE',  ( 0.0000000000000000000, 0.0000000000000000000, 1.000000000000000000 ) ) ;
#81 = CONICAL_SURFACE ( 'NONE', #303, 5.000000000000000000, 0.7853981633974526089 ) ;
#82 = ORIENTED_EDGE ( 'NONE', *, *, #40, .F. ) ;
#83 = FACE_OUTER_BOUND ( 'NONE', #242, .T. ) ;
#84 = ORIENTED_EDGE ( 'NONE', *, *, #201, .F. ) ;
#85 = CARTESIAN_POINT ( 'NONE',  ( -46.22222222222222143, 0.0000000000000000000, 0.0000000000000000000 ) ) ;
#86 = ORIENTED_EDGE ( 'NONE', *, *, #298, .T. ) ;
#87 = AXIS2_PLACEMENT_3D ( 'NONE', #184, #160, #256 ) ;
#88 = ADVANCED_FACE ( 'NONE', ( #23 ), #157, .F. ) ;
#89 = DIRECTION ( 'NONE',  ( -1.000000000000000000, -0.0000000000000000000, -0.0000000000000000000 ) ) ;
#90 = AXIS2_PLACEMENT_3D ( 'NONE', #7, #89, #208 ) ;
#91 = PRODUCT_DEFINITION_FORMATION_WITH_SPECIFIED_SOURCE ( 'ANY', '', #178, .NOT_KNOWN. ) ;
#92 = DIRECTION ( 'NONE',  ( 1.000000000000000000, -0.0000000000000000000, -0.0000000000000000000 ) ) ;
#93 = EDGE_CURVE ( 'NONE', #302, #214, #216, .T. ) ;
#94 = PLANE ( 'NONE',  #155 ) ;
#95 = DIRECTION ( 'NONE',  ( -1.000000000000000000, -0.0000000000000000000, -0.0000000000000000000 ) ) ;
#96 = ORIENTED_EDGE ( 'NONE', *, *, #298, .F. ) ;
#97 = CARTESIAN_POINT ( 'NONE',  ( -5.517094017094020586, 0.0000000000000000000, 0.0000000000000000000 ) ) ;
#98 = SURFACE_STYLE_FILL_AREA ( #121 ) ;
#99 = EDGE_LOOP ( 'NONE', ( #189, #104, #273, #130 ) ) ;
#100 = DIRECTION ( 'NONE',  ( 0.0000000000000000000, 0.0000000000000000000, -1.000000000000000000 ) ) ;
#101 = DIRECTION ( 'NONE',  ( -1.000000000000000000, -0.0000000000000000000, -0.0000000000000000000 ) ) ;
#102 = DIRECTION ( 'NONE',  ( -1.000000000000000000, -0.0000000000000000000, -0.0000000000000000000 ) ) ;
#103 =( NAMED_UNIT ( * ) PLANE_ANGLE_UNIT ( ) SI_UNIT ( $, .RADIAN. ) );
#104 = ORIENTED_EDGE ( 'NONE', *, *, #277, .F. ) ;
#105 = COLOUR_RGB ( '',0.7921568627450980005, 0.8196078431372548767, 0.9333333333333333481 ) ;
#106 =( NAMED_UNIT ( * ) SI_UNIT ( $, .STERADIAN. ) SOLID_ANGLE_UNIT ( ) );
#107 = CIRCLE ( 'NONE', #207, 10.99999999999999645 ) ;
#108 = EDGE_CURVE ( 'NONE', #168, #182, #61, .T. ) ;
#109 = CIRCLE ( 'NONE', #152, 5.000000000000000000 ) ;
#110 = DIRECTION ( 'NONE',  ( 0.0000000000000000000, 0.0000000000000000000, 1.000000000000000000 ) ) ;
#111 = VECTOR ( 'NONE', #239, 1000.000000000000000 ) ;
#112 = FACE_OUTER_BOUND ( 'NONE', #224, .T. ) ;
#113 = CARTESIAN_POINT ( 'NONE',  ( 13.98290598290599185, 0.0000000000000000000, 0.0000000000000000000 ) ) ;
#114 = DIRECTION ( 'NONE',  ( 0.0000000000000000000, 0.0000000000000000000, 1.000000000000000000 ) ) ;
#115 = CARTESIAN_POINT ( 'NONE',  ( -46.22222222222222143, 1.347111479062088010E-15, -10.99999999999999645 ) ) ;
#116 = FACE_OUTER_BOUND ( 'NONE', #143, .T. ) ;
#117 = DIRECTION ( 'NONE',  ( -1.000000000000000000, 0.0000000000000000000, 0.0000000000000000000 ) ) ;
#118 = ORIENTED_EDGE ( 'NONE', *, *, #291, .F. ) ;
#119 = ADVANCED_FACE ( 'NONE', ( #310, #252 ), #94, .F. ) ;
#120 =( GEOMETRIC_REPRESENTATION_CONTEXT ( 3 ) GLOBAL_UNCERTAINTY_ASSIGNED_CONTEXT ( ( #58 ) ) GLOBAL_UNIT_ASSIGNED_CONTEXT ( ( #165, #103, #124 ) ) REPRESENTATION_CONTEXT ( 'NONE', 'WORKASPACE' ) );
#121 = FILL_AREA_STYLE ('',( #12 ) ) ;
#122 = ORIENTED_EDGE ( 'NONE', *, *, #202, .T. ) ;
#123 = DIRECTION ( 'NONE',  ( 0.0000000000000000000, 0.0000000000000000000, 1.000000000000000000 ) ) ;
#124 =( NAMED_UNIT ( * ) SI_UNIT ( $, .STERADIAN. ) SOLID_ANGLE_UNIT ( ) );
#125 = ORIENTED_EDGE ( 'NONE', *, *, #78, .F. ) ;
#126 = DIRECTION ( 'NONE',  ( -1.000000000000000000, -0.0000000000000000000, -0.0000000000000000000 ) ) ;
#127 = VERTEX_POINT ( 'NONE', #140 ) ;
#128 = MECHANICAL_DESIGN_GEOMETRIC_PRESENTATION_REPRESENTATION (  '', ( #176 ), #71 ) ;
#129 = DIRECTION ( 'NONE',  ( 0.0000000000000000000, 0.0000000000000000000, 1.000000000000000000 ) ) ;
#130 = ORIENTED_EDGE ( 'NONE', *, *, #210, .F. ) ;
#131 = UNCERTAINTY_MEASURE_WITH_UNIT (LENGTH_MEASURE( 1.000000000000000082E-05 ), #27, 'distance_accuracy_value', 'NONE');
#132 = ADVANCED_FACE ( 'NONE', ( #116 ), #254, .T. ) ;
#133 = MANIFOLD_SOLID_BREP ( 'Chamfer1', #227 ) ;
#134 = CIRCLE ( 'NONE', #3, 5.000000000000000000 ) ;
#135 = APPLICATION_CONTEXT ( 'automotive_design' ) ;
#136 = CARTESIAN_POINT ( 'NONE',  ( 13.98290598290599007, 6.735557395310448926E-16, 5.500000000000005329 ) ) ;
#137 = DIRECTION ( 'NONE',  ( 0.0000000000000000000, 0.0000000000000000000, 1.000000000000000000 ) ) ;
#138 = DIRECTION ( 'NONE',  ( -1.000000000000000000, 0.0000000000000000000, 0.0000000000000000000 ) ) ;
#139 = COLOUR_RGB ( '',0.7921568627450980005, 0.8196078431372548767, 0.9333333333333333481 ) ;
#140 = CARTESIAN_POINT ( 'NONE',  ( -6.017094017094014369, 6.735557395310440051E-16, -5.499999999999998224 ) ) ;
#141 = DIRECTION ( 'NONE',  ( 0.7071067811865444641, 0.0000000000000000000, -0.7071067811865505703 ) ) ;
#142 = FILL_AREA_STYLE_COLOUR ( '', #139 ) ;
#143 = EDGE_LOOP ( 'NONE', ( #299, #296, #301, #76 ) ) ;
#144 = CARTESIAN_POINT ( 'NONE',  ( -5.517094017094020586, 0.0000000000000000000, 5.000000000000000000 ) ) ;
#145 = DIRECTION ( 'NONE',  ( -1.000000000000000000, 0.0000000000000000000, -0.0000000000000000000 ) ) ;
#146 = ORIENTED_EDGE ( 'NONE', *, *, #274, .T. ) ;
#147 = CONICAL_SURFACE ( 'NONE', #271, 5.500000000000005329, 0.7853981633974526089 ) ;
#148 = VECTOR ( 'NONE', #18, 1000.000000000000000 ) ;
#149 = ORIENTED_EDGE ( 'NONE', *, *, #228, .F. ) ;
#150 = EDGE_CURVE ( 'NONE', #166, #171, #19, .T. ) ;
#151 = EDGE_LOOP ( 'NONE', ( #146, #86 ) ) ;
#152 = AXIS2_PLACEMENT_3D ( 'NONE', #243, #241, #75 ) ;
#153 =( NAMED_UNIT ( * ) PLANE_ANGLE_UNIT ( ) SI_UNIT ( $, .RADIAN. ) );
#154 = ORIENTED_EDGE ( 'NONE', *, *, #108, .T. ) ;
#155 = AXIS2_PLACEMENT_3D ( 'NONE', #205, #181, #289 ) ;
#156 =( GEOMETRIC_REPRESENTATION_CONTEXT ( 3 ) GLOBAL_UNCERTAINTY_ASSIGNED_CONTEXT ( ( #200 ) ) GLOBAL_UNIT_ASSIGNED_CONTEXT ( ( #247, #153, #106 ) ) REPRESENTATION_CONTEXT ( 'NONE', 'WORKASPACE' ) );
#157 = CONICAL_SURFACE ( 'NONE', #306, 5.000000000000000000, 0.7853981633974526089 ) ;
#158 = CARTESIAN_POINT ( 'NONE',  ( 13.98290598290599185, 6.735557395310450898E-16, 5.500000000000006217 ) ) ;
#159 = DIRECTION ( 'NONE',  ( -1.000000000000000000, -0.0000000000000000000, -0.0000000000000000000 ) ) ;
#160 = DIRECTION ( 'NONE',  ( -1.000000000000000000, -0.0000000000000000000, -0.0000000000000000000 ) ) ;
#161 = LINE ( 'NONE', #136, #111 ) ;
#162 = CARTESIAN_POINT ( 'NONE',  ( 13.98290598290599185, 10.99999999999999645, 0.0000000000000000000 ) ) ;
#163 = DIRECTION ( 'NONE',  ( -1.000000000000000000, -0.0000000000000000000, -0.0000000000000000000 ) ) ;
#164 = VERTEX_POINT ( 'NONE', #48 ) ;
#165 =( LENGTH_UNIT ( ) NAMED_UNIT ( * ) SI_UNIT ( .MILLI., .METRE. ) );
#166 = VERTEX_POINT ( 'NONE', #144 ) ;
#167 = ORIENTED_EDGE ( 'NONE', *, *, #210, .T. ) ;
#168 = VERTEX_POINT ( 'NONE', #185 ) ;
#169 = VECTOR ( 'NONE', #272, 1000.000000000000000 ) ;
#170 = VERTEX_POINT ( 'NONE', #63 ) ;
#171 = VERTEX_POINT ( 'NONE', #183 ) ;
#172 = CARTESIAN_POINT ( 'NONE',  ( -6.017094017094014369, 0.0000000000000000000, 0.0000000000000000000 ) ) ;
#173 = ORIENTED_EDGE ( 'NONE', *, *, #177, .F. ) ;
#174 = CIRCLE ( 'NONE', #230, 5.500000000000006217 ) ;
#175 = PRODUCT_DEFINITION_CONTEXT ( 'detailed design', #135, 'design' ) ;
#176 = STYLED_ITEM ( 'NONE', ( #282 ), #133 ) ;
#177 = EDGE_CURVE ( 'NONE', #164, #166, #66, .T. ) ;
#178 = PRODUCT ( 'BRM 10x2', 'BRM 10x2', '', ( #314 ) ) ;
#179 = CARTESIAN_POINT ( 'NONE',  ( -5.517094017094020586, 6.123233995736766282E-16, -5.000000000000000000 ) ) ;
#180 = AXIS2_PLACEMENT_3D ( 'NONE', #225, #300, #79 ) ;
#181 = DIRECTION ( 'NONE',  ( 1.000000000000000000, 0.0000000000000000000, 0.0000000000000000000 ) ) ;
#182 = VERTEX_POINT ( 'NONE', #187 ) ;
#183 = CARTESIAN_POINT ( 'NONE',  ( -6.017094017094014369, 0.0000000000000000000, 5.499999999999998224 ) ) ;
#184 = CARTESIAN_POINT ( 'NONE',  ( -46.22222222222222143, 0.0000000000000000000, 0.0000000000000000000 ) ) ;
#185 = CARTESIAN_POINT ( 'NONE',  ( 13.98290598290599718, 1.347111479062088010E-15, -10.99999999999999645 ) ) ;
#186 = FACE_OUTER_BOUND ( 'NONE', #226, .T. ) ;
#187 = CARTESIAN_POINT ( 'NONE',  ( 13.98290598290599718, 0.0000000000000000000, 10.99999999999999645 ) ) ;
#188 = DIRECTION ( 'NONE',  ( 0.0000000000000000000, 0.0000000000000000000, 1.000000000000000000 ) ) ;
#189 = ORIENTED_EDGE ( 'NONE', *, *, #197, .F. ) ;
#190 = DIRECTION ( 'NONE',  ( 1.000000000000000000, -0.0000000000000000000, -0.0000000000000000000 ) ) ;
#191 = EDGE_LOOP ( 'NONE', ( #267, #217 ) ) ;
#192 = DIRECTION ( 'NONE',  ( 0.0000000000000000000, 0.0000000000000000000, 1.000000000000000000 ) ) ;
#193 = EDGE_LOOP ( 'NONE', ( #34, #72 ) ) ;
#194 = AXIS2_PLACEMENT_3D ( 'NONE', #311, #95, #114 ) ;
#195 = VECTOR ( 'NONE', #284, 1000.000000000000000 ) ;
#196 = ORIENTED_EDGE ( 'NONE', *, *, #201, .T. ) ;
#197 = EDGE_CURVE ( 'NONE', #164, #214, #161, .T. ) ;
#198 = VECTOR ( 'NONE', #141, 1000.000000000000000 ) ;
#199 = CIRCLE ( 'NONE', #41, 5.000000000000000000 ) ;
#200 = UNCERTAINTY_MEASURE_WITH_UNIT (LENGTH_MEASURE( 1.000000000000000082E-05 ), #247, 'distance_accuracy_value', 'NONE');
#201 = EDGE_CURVE ( 'NONE', #246, #127, #258, .T. ) ;
#202 = EDGE_CURVE ( 'NONE', #182, #2, #235, .T. ) ;
#203 = CIRCLE ( 'NONE', #279, 5.499999999999998224 ) ;
#204 = CIRCLE ( 'NONE', #251, 5.000000000000000000 ) ;
#205 = CARTESIAN_POINT ( 'NONE',  ( -6.017094017094014369, 5.000000000000000000, 0.0000000000000000000 ) ) ;
#206 = DIRECTION ( 'NONE',  ( 0.0000000000000000000, 0.0000000000000000000, -1.000000000000000000 ) ) ;
#207 = AXIS2_PLACEMENT_3D ( 'NONE', #172, #38, #129 ) ;
#208 = DIRECTION ( 'NONE',  ( 0.0000000000000000000, 0.0000000000000000000, 1.000000000000000000 ) ) ;
#209 = CYLINDRICAL_SURFACE ( 'NONE', #194, 5.000000000000000000 ) ;
#210 = EDGE_CURVE ( 'NONE', #214, #302, #174, .T. ) ;
#211 = DIRECTION ( 'NONE',  ( 0.0000000000000000000, 0.0000000000000000000, 1.000000000000000000 ) ) ;
#212 = FACE_OUTER_BOUND ( 'NONE', #249, .T. ) ;
#213 =( NAMED_UNIT ( * ) SI_UNIT ( $, .STERADIAN. ) SOLID_ANGLE_UNIT ( ) );
#214 = VERTEX_POINT ( 'NONE', #158 ) ;
#215 = SHAPE_DEFINITION_REPRESENTATION ( #309, #33 ) ;
#216 = CIRCLE ( 'NONE', #29, 5.500000000000006217 ) ;
#217 = ORIENTED_EDGE ( 'NONE', *, *, #46, .T. ) ;
#218 = FACE_BOUND ( 'NONE', #39, .T. ) ;
#219 = APPLICATION_CONTEXT ( 'automotive_design' ) ;
#220 = SURFACE_STYLE_USAGE ( .BOTH. , #292 ) ;
#221 = EDGE_LOOP ( 'NONE', ( #30, #196, #6, #223 ) ) ;
#222 = DIRECTION ( 'NONE',  ( -1.000000000000000000, 0.0000000000000000000, 0.0000000000000000000 ) ) ;
#223 = ORIENTED_EDGE ( 'NONE', *, *, #150, .F. ) ;
#224 = EDGE_LOOP ( 'NONE', ( #244, #4, #32, #173 ) ) ;
#225 = CARTESIAN_POINT ( 'NONE',  ( -6.017094017094014369, 0.0000000000000000000, 0.0000000000000000000 ) ) ;
#226 = EDGE_LOOP ( 'NONE', ( #149, #287, #13, #125 ) ) ;
#227 = CLOSED_SHELL ( 'NONE', ( #14, #88, #67, #132, #119, #255, #8, #60, #31, #36 ) ) ;
#228 = EDGE_CURVE ( 'NONE', #164, #170, #204, .T. ) ;
#229 = CONICAL_SURFACE ( 'NONE', #70, 5.500000000000005329, 0.7853981633974526089 ) ;
#230 = AXIS2_PLACEMENT_3D ( 'NONE', #113, #159, #211 ) ;
#231 = EDGE_CURVE ( 'NONE', #246, #166, #199, .T. ) ;
#232 = CARTESIAN_POINT ( 'NONE',  ( 13.48290598290598830, 0.0000000000000000000, 0.0000000000000000000 ) ) ;
#233 = DIRECTION ( 'NONE',  ( 0.0000000000000000000, 0.0000000000000000000, -1.000000000000000000 ) ) ;
#234 = CIRCLE ( 'NONE', #275, 5.499999999999998224 ) ;
#235 = LINE ( 'NONE', #22, #16 ) ;
#236 = CARTESIAN_POINT ( 'NONE',  ( -6.017094017094014369, 1.347111479062088010E-15, -10.99999999999999645 ) ) ;
#237 = DIRECTION ( 'NONE',  ( -1.000000000000000000, 0.0000000000000000000, 0.0000000000000000000 ) ) ;
#238 = CARTESIAN_POINT ( 'NONE',  ( -6.017094017094014369, 0.0000000000000000000, 0.0000000000000000000 ) ) ;
#239 = DIRECTION ( 'NONE',  ( 0.7071067811865444641, 8.659560562354969836E-17, 0.7071067811865505703 ) ) ;
#240 = CARTESIAN_POINT ( 'NONE',  ( -6.017094017094014369, 0.0000000000000000000, 0.0000000000000000000 ) ) ;
#241 = DIRECTION ( 'NONE',  ( 1.000000000000000000, -0.0000000000000000000, -0.0000000000000000000 ) ) ;
#242 = EDGE_LOOP ( 'NONE', ( #270, #154, #122, #96 ) ) ;
#243 = CARTESIAN_POINT ( 'NONE',  ( 13.48290598290598830, 0.0000000000000000000, 0.0000000000000000000 ) ) ;
#244 = ORIENTED_EDGE ( 'NONE', *, *, #228, .T. ) ;
#245 = LINE ( 'NONE', #269, #260 ) ;
#246 = VERTEX_POINT ( 'NONE', #25 ) ;
#247 =( LENGTH_UNIT ( ) NAMED_UNIT ( * ) SI_UNIT ( .MILLI., .METRE. ) );
#248 = PRESENTATION_LAYER_ASSIGNMENT (  '', '', ( #176 ) ) ;
#249 = EDGE_LOOP ( 'NONE', ( #84, #82, #35, #307 ) ) ;
#250 = EDGE_CURVE ( 'NONE', #168, #50, #24, .T. ) ;
#251 = AXIS2_PLACEMENT_3D ( 'NONE', #232, #312, #62 ) ;
#252 = FACE_OUTER_BOUND ( 'NONE', #151, .T. ) ;
#253 = DIRECTION ( 'NONE',  ( 1.000000000000000000, 0.0000000000000000000, 0.0000000000000000000 ) ) ;
#254 = CYLINDRICAL_SURFACE ( 'NONE', #11, 10.99999999999999645 ) ;
#255 = ADVANCED_FACE ( 'NONE', ( #83 ), #295, .T. ) ;
#256 = DIRECTION ( 'NONE',  ( 0.0000000000000000000, 0.0000000000000000000, 1.000000000000000000 ) ) ;
#257 = CARTESIAN_POINT ( 'NONE',  ( 0.0000000000000000000, 0.0000000000000000000, 0.0000000000000000000 ) ) ;
#258 = LINE ( 'NONE', #179, #148 ) ;
#259 = LINE ( 'NONE', #45, #198 ) ;
#260 = VECTOR ( 'NONE', #49, 1000.000000000000000 ) ;
#261 = SURFACE_SIDE_STYLE ('',( #43 ) ) ;
#262 = PLANE ( 'NONE',  #15 ) ;
#263 = CARTESIAN_POINT ( 'NONE',  ( -5.517094017094020586, 0.0000000000000000000, 5.000000000000000000 ) ) ;
#264 = DIRECTION ( 'NONE',  ( 0.0000000000000000000, 0.0000000000000000000, -1.000000000000000000 ) ) ;
#265 = DIRECTION ( 'NONE',  ( 1.000000000000000000, 0.0000000000000000000, 0.0000000000000000000 ) ) ;
#266 = CIRCLE ( 'NONE', #37, 10.99999999999999645 ) ;
#267 = ORIENTED_EDGE ( 'NONE', *, *, #9, .T. ) ;
#268 = CARTESIAN_POINT ( 'NONE',  ( 13.98290598290599185, 0.0000000000000000000, -5.500000000000006217 ) ) ;
#269 = CARTESIAN_POINT ( 'NONE',  ( -46.22222222222222143, 6.123233995736766282E-16, -5.000000000000000000 ) ) ;
#270 = ORIENTED_EDGE ( 'NONE', *, *, #250, .F. ) ;
#271 = AXIS2_PLACEMENT_3D ( 'NONE', #74, #92, #20 ) ;
#272 = DIRECTION ( 'NONE',  ( -1.000000000000000000, -0.0000000000000000000, -0.0000000000000000000 ) ) ;
#273 = ORIENTED_EDGE ( 'NONE', *, *, #78, .T. ) ;
#274 = EDGE_CURVE ( 'NONE', #2, #50, #288, .T. ) ;
#275 = AXIS2_PLACEMENT_3D ( 'NONE', #240, #283, #233 ) ;
#276 = VECTOR ( 'NONE', #69, 1000.000000000000000 ) ;
#277 = EDGE_CURVE ( 'NONE', #170, #164, #109, .T. ) ;
#278 =( NAMED_UNIT ( * ) PLANE_ANGLE_UNIT ( ) SI_UNIT ( $, .RADIAN. ) );
#279 = AXIS2_PLACEMENT_3D ( 'NONE', #238, #265, #100 ) ;
#280 = AXIS2_PLACEMENT_3D ( 'NONE', #257, #110, #253 ) ;
#281 = PRODUCT_RELATED_PRODUCT_CATEGORY ( 'part', '', ( #178 ) ) ;
#282 = PRESENTATION_STYLE_ASSIGNMENT (( #73 ) ) ;
#283 = DIRECTION ( 'NONE',  ( 1.000000000000000000, 0.0000000000000000000, 0.0000000000000000000 ) ) ;
#284 = DIRECTION ( 'NONE',  ( -1.000000000000000000, -0.0000000000000000000, -0.0000000000000000000 ) ) ;
#285 = EDGE_LOOP ( 'NONE', ( #118, #53, #293, #57 ) ) ;
#286 = CARTESIAN_POINT ( 'NONE',  ( -5.517094017094020586, 0.0000000000000000000, 0.0000000000000000000 ) ) ;
#287 = ORIENTED_EDGE ( 'NONE', *, *, #197, .T. ) ;
#288 = CIRCLE ( 'NONE', #180, 10.99999999999999645 ) ;
#289 = DIRECTION ( 'NONE',  ( 0.0000000000000000000, 0.0000000000000000000, -1.000000000000000000 ) ) ;
#290 = FACE_OUTER_BOUND ( 'NONE', #99, .T. ) ;
#291 = EDGE_CURVE ( 'NONE', #170, #246, #245, .T. ) ;
#292 = SURFACE_SIDE_STYLE ('',( #98 ) ) ;
#293 = ORIENTED_EDGE ( 'NONE', *, *, #177, .T. ) ;
#294 = DIRECTION ( 'NONE',  ( 0.0000000000000000000, 0.0000000000000000000, -1.000000000000000000 ) ) ;
#295 = CYLINDRICAL_SURFACE ( 'NONE', #44, 10.99999999999999645 ) ;
#296 = ORIENTED_EDGE ( 'NONE', *, *, #250, .T. ) ;
#297 = CARTESIAN_POINT ( 'NONE',  ( 13.98290598290599185, 0.0000000000000000000, 0.0000000000000000000 ) ) ;
#298 = EDGE_CURVE ( 'NONE', #50, #2, #107, .T. ) ;
#299 = ORIENTED_EDGE ( 'NONE', *, *, #304, .T. ) ;
#300 = DIRECTION ( 'NONE',  ( -1.000000000000000000, -0.0000000000000000000, -0.0000000000000000000 ) ) ;
#301 = ORIENTED_EDGE ( 'NONE', *, *, #274, .F. ) ;
#302 = VERTEX_POINT ( 'NONE', #268 ) ;
#303 = AXIS2_PLACEMENT_3D ( 'NONE', #26, #117, #123 ) ;
#304 = EDGE_CURVE ( 'NONE', #182, #168, #266, .T. ) ;
#305 = FILL_AREA_STYLE ('',( #142 ) ) ;
#306 = AXIS2_PLACEMENT_3D ( 'NONE', #313, #222, #192 ) ;
#307 = ORIENTED_EDGE ( 'NONE', *, *, #46, .F. ) ;
#308 = APPLICATION_PROTOCOL_DEFINITION ( 'draft international standard', 'automotive_design', 1998, #219 ) ;
#309 = PRODUCT_DEFINITION_SHAPE ( 'NONE', 'NONE',  #54 ) ;
#310 = FACE_BOUND ( 'NONE', #191, .T. ) ;
#311 = CARTESIAN_POINT ( 'NONE',  ( -46.22222222222222143, 0.0000000000000000000, 0.0000000000000000000 ) ) ;
#312 = DIRECTION ( 'NONE',  ( 1.000000000000000000, -0.0000000000000000000, -0.0000000000000000000 ) ) ;
#313 = CARTESIAN_POINT ( 'NONE',  ( -5.517094017094020586, 0.0000000000000000000, 0.0000000000000000000 ) ) ;
#314 = PRODUCT_CONTEXT ( 'NONE', #219, 'mechanical' ) ;
ENDSEC;
END-ISO-10303-21;
