ISO-10303-21;
HEADER;
FILE_DESCRIPTION (( 'STEP AP214' ),
    '1' );
FILE_NAME ('BRM 70x10.step',
    '2020-09-08T10:24:13',
    ( '' ),
    ( '' ),
    'SwSTEP 2.0',
    'SolidWorks 2020',
    '' );
FILE_SCHEMA (( 'AUTOMOTIVE_DESIGN' ));
ENDSEC;

DATA;
#1 = DIRECTION ( 'NONE',  ( 1.000000000000000000, 0.0000000000000000000, 0.0000000000000000000 ) ) ;
#2 = ADVANCED_FACE ( 'NONE', ( #273 ), #39, .F. ) ;
#3 = ORIENTED_EDGE ( 'NONE', *, *, #295, .T. ) ;
#4 = VECTOR ( 'NONE', #26, 999.9999999999998863 ) ;
#5 = CARTESIAN_POINT ( 'NONE',  ( -6.017094017094014369, 0.0000000000000000000, 0.0000000000000000000 ) ) ;
#6 = LINE ( 'NONE', #133, #4 ) ;
#7 = DIRECTION ( 'NONE',  ( 0.0000000000000000000, 0.0000000000000000000, 1.000000000000000000 ) ) ;
#8 = DIRECTION ( 'NONE',  ( 0.0000000000000000000, 0.0000000000000000000, -1.000000000000000000 ) ) ;
#9 = ORIENTED_EDGE ( 'NONE', *, *, #24, .T. ) ;
#10 = DIRECTION ( 'NONE',  ( -0.0000000000000000000, 0.0000000000000000000, 1.000000000000000000 ) ) ;
#11 = DIRECTION ( 'NONE',  ( 0.0000000000000000000, 0.0000000000000000000, -1.000000000000000000 ) ) ;
#12 = CARTESIAN_POINT ( 'NONE',  ( 133.9829059829060043, 0.0000000000000000000, 0.0000000000000000000 ) ) ;
#13 = VERTEX_POINT ( 'NONE', #36 ) ;
#14 = AXIS2_PLACEMENT_3D ( 'NONE', #96, #54, #10 ) ;
#15 = APPLICATION_CONTEXT ( 'automotive_design' ) ;
#16 = FACE_OUTER_BOUND ( 'NONE', #71, .T. ) ;
#17 = UNCERTAINTY_MEASURE_WITH_UNIT (LENGTH_MEASURE( 1.000000000000000082E-05 ), #187, 'distance_accuracy_value', 'NONE');
#18 = PRODUCT_CONTEXT ( 'NONE', #15, 'mechanical' ) ;
#19 = AXIS2_PLACEMENT_3D ( 'NONE', #135, #31, #104 ) ;
#20 = VERTEX_POINT ( 'NONE', #129 ) ;
#21 = ORIENTED_EDGE ( 'NONE', *, *, #241, .F. ) ;
#22 = DIRECTION ( 'NONE',  ( -1.000000000000000000, 0.0000000000000000000, 0.0000000000000000000 ) ) ;
#23 = PLANE ( 'NONE',  #131 ) ;
#24 = EDGE_CURVE ( 'NONE', #265, #84, #248, .T. ) ;
#25 = CARTESIAN_POINT ( 'NONE',  ( -5.517094017094055225, 4.286263797015736496E-15, -35.00000000000000000 ) ) ;
#26 = DIRECTION ( 'NONE',  ( -0.7071067811865574537, 8.659560562354813296E-17, -0.7071067811865376918 ) ) ;
#27 = DIRECTION ( 'NONE',  ( -1.000000000000000000, -0.0000000000000000000, -0.0000000000000000000 ) ) ;
#28 = EDGE_CURVE ( 'NONE', #231, #72, #257, .T. ) ;
#29 = AXIS2_PLACEMENT_3D ( 'NONE', #210, #144, #236 ) ;
#30 = AXIS2_PLACEMENT_3D ( 'NONE', #50, #27, #180 ) ;
#31 = DIRECTION ( 'NONE',  ( -1.000000000000000000, -0.0000000000000000000, -0.0000000000000000000 ) ) ;
#32 = EDGE_LOOP ( 'NONE', ( #182, #301 ) ) ;
#33 = FACE_OUTER_BOUND ( 'NONE', #240, .T. ) ;
#34 = VERTEX_POINT ( 'NONE', #57 ) ;
#35 = SURFACE_STYLE_FILL_AREA ( #253 ) ;
#36 = CARTESIAN_POINT ( 'NONE',  ( 133.4829059829060327, 4.286263797015736496E-15, -35.00000000000000000 ) ) ;
#37 = CONICAL_SURFACE ( 'NONE', #208, 35.00000000000000000, 0.7853981633974344012 ) ;
#38 = CONICAL_SURFACE ( 'NONE', #221, 35.49999999999996447, 0.7853981633974346233 ) ;
#39 = CYLINDRICAL_SURFACE ( 'NONE', #30, 35.00000000000000000 ) ;
#40 =( NAMED_UNIT ( * ) PLANE_ANGLE_UNIT ( ) SI_UNIT ( $, .RADIAN. ) );
#41 = FACE_OUTER_BOUND ( 'NONE', #32, .T. ) ;
#42 = APPLICATION_PROTOCOL_DEFINITION ( 'draft international standard', 'automotive_design', 1998, #15 ) ;
#43 = CARTESIAN_POINT ( 'NONE',  ( -46.22222222222222143, 4.286263797015736496E-15, -35.00000000000000000 ) ) ;
#44 = ORIENTED_EDGE ( 'NONE', *, *, #166, .F. ) ;
#45 = AXIS2_PLACEMENT_3D ( 'NONE', #5, #280, #100 ) ;
#46 = AXIS2_PLACEMENT_3D ( 'NONE', #263, #164, #306 ) ;
#47 = ADVANCED_FACE ( 'NONE', ( #79 ), #219, .F. ) ;
#48 = ORIENTED_EDGE ( 'NONE', *, *, #286, .F. ) ;
#49 = CARTESIAN_POINT ( 'NONE',  ( 133.9829059829060043, 0.0000000000000000000, 55.00000000000000000 ) ) ;
#50 = CARTESIAN_POINT ( 'NONE',  ( -46.22222222222222143, 0.0000000000000000000, 0.0000000000000000000 ) ) ;
#51 = EDGE_CURVE ( 'NONE', #13, #265, #197, .T. ) ;
#52 = CYLINDRICAL_SURFACE ( 'NONE', #314, 55.00000000000000000 ) ;
#53 = CIRCLE ( 'NONE', #118, 35.49999999999995026 ) ;
#54 = DIRECTION ( 'NONE',  ( -1.000000000000000000, 0.0000000000000000000, -0.0000000000000000000 ) ) ;
#55 = DIRECTION ( 'NONE',  ( -1.000000000000000000, -0.0000000000000000000, -0.0000000000000000000 ) ) ;
#56 = CYLINDRICAL_SURFACE ( 'NONE', #19, 55.00000000000000000 ) ;
#57 = CARTESIAN_POINT ( 'NONE',  ( -6.017094017094014369, 0.0000000000000000000, 35.49999999999995026 ) ) ;
#58 = ORIENTED_EDGE ( 'NONE', *, *, #272, .F. ) ;
#59 =( GEOMETRIC_REPRESENTATION_CONTEXT ( 3 ) GLOBAL_UNCERTAINTY_ASSIGNED_CONTEXT ( ( #186 ) ) GLOBAL_UNIT_ASSIGNED_CONTEXT ( ( #68, #110, #304 ) ) REPRESENTATION_CONTEXT ( 'NONE', 'WORKASPACE' ) );
#60 = CIRCLE ( 'NONE', #145, 35.49999999999995026 ) ;
#61 = SURFACE_SIDE_STYLE ('',( #143 ) ) ;
#62 = PRESENTATION_LAYER_ASSIGNMENT (  '', '', ( #184 ) ) ;
#63 = PRODUCT_DEFINITION_SHAPE ( 'NONE', 'NONE',  #252 ) ;
#64 = FILL_AREA_STYLE ('',( #207 ) ) ;
#65 = CIRCLE ( 'NONE', #188, 55.00000000000000000 ) ;
#66 = CARTESIAN_POINT ( 'NONE',  ( 133.9829059829060043, 0.0000000000000000000, 0.0000000000000000000 ) ) ;
#67 = COLOUR_RGB ( '',0.7921568627450980005, 0.8196078431372548767, 0.9333333333333333481 ) ;
#68 =( LENGTH_UNIT ( ) NAMED_UNIT ( * ) SI_UNIT ( .MILLI., .METRE. ) );
#69 = CARTESIAN_POINT ( 'NONE',  ( -5.517094017094055225, 0.0000000000000000000, 0.0000000000000000000 ) ) ;
#70 = VECTOR ( 'NONE', #230, 1000.000000000000000 ) ;
#71 = EDGE_LOOP ( 'NONE', ( #58, #246, #212, #73 ) ) ;
#72 = VERTEX_POINT ( 'NONE', #77 ) ;
#73 = ORIENTED_EDGE ( 'NONE', *, *, #51, .F. ) ;
#74 = CIRCLE ( 'NONE', #125, 35.49999999999996447 ) ;
#75 = FACE_OUTER_BOUND ( 'NONE', #276, .T. ) ;
#76 = ADVANCED_FACE ( 'NONE', ( #175 ), #52, .T. ) ;
#77 = CARTESIAN_POINT ( 'NONE',  ( -6.017094017094014369, 0.0000000000000000000, 55.00000000000000000 ) ) ;
#78 = CARTESIAN_POINT ( 'NONE',  ( 133.9829059829060043, 0.0000000000000000000, 0.0000000000000000000 ) ) ;
#79 = FACE_OUTER_BOUND ( 'NONE', #251, .T. ) ;
#80 = CARTESIAN_POINT ( 'NONE',  ( -6.017094017094014369, 6.735557395310442615E-15, -55.00000000000000000 ) ) ;
#81 = ORIENTED_EDGE ( 'NONE', *, *, #163, .F. ) ;
#82 = ADVANCED_FACE ( 'NONE', ( #297 ), #37, .F. ) ;
#83 = FILL_AREA_STYLE_COLOUR ( '', #132 ) ;
#84 = VERTEX_POINT ( 'NONE', #148 ) ;
#85 = DIRECTION ( 'NONE',  ( -1.000000000000000000, -0.0000000000000000000, -0.0000000000000000000 ) ) ;
#86 = ADVANCED_FACE ( 'NONE', ( #204, #41 ), #23, .F. ) ;
#87 = AXIS2_PLACEMENT_3D ( 'NONE', #66, #261, #285 ) ;
#88 = PRESENTATION_STYLE_ASSIGNMENT (( #232 ) ) ;
#89 = LINE ( 'NONE', #115, #266 ) ;
#90 = PRESENTATION_LAYER_ASSIGNMENT (  '', '', ( #229 ) ) ;
#91 = CARTESIAN_POINT ( 'NONE',  ( -6.017094017094014369, 35.00000000000000000, 0.0000000000000000000 ) ) ;
#92 = VERTEX_POINT ( 'NONE', #216 ) ;
#93 = ORIENTED_EDGE ( 'NONE', *, *, #168, .T. ) ;
#94 = ORIENTED_EDGE ( 'NONE', *, *, #28, .F. ) ;
#95 = ADVANCED_BREP_SHAPE_REPRESENTATION ( 'BRM 70x10', ( #234, #29 ), #130 ) ;
#96 = CARTESIAN_POINT ( 'NONE',  ( 133.9829059829060043, 55.00000000000000000, 0.0000000000000000000 ) ) ;
#97 = ORIENTED_EDGE ( 'NONE', *, *, #233, .F. ) ;
#98 = CIRCLE ( 'NONE', #46, 35.00000000000000000 ) ;
#99 = LINE ( 'NONE', #298, #195 ) ;
#100 = DIRECTION ( 'NONE',  ( 0.0000000000000000000, 0.0000000000000000000, 1.000000000000000000 ) ) ;
#101 =( NAMED_UNIT ( * ) SI_UNIT ( $, .STERADIAN. ) SOLID_ANGLE_UNIT ( ) );
#102 = DIRECTION ( 'NONE',  ( 0.7071067811865573427, 0.0000000000000000000, -0.7071067811865378028 ) ) ;
#103 = EDGE_CURVE ( 'NONE', #13, #92, #205, .T. ) ;
#104 = DIRECTION ( 'NONE',  ( 0.0000000000000000000, 0.0000000000000000000, 1.000000000000000000 ) ) ;
#105 = ORIENTED_EDGE ( 'NONE', *, *, #272, .T. ) ;
#106 = DIRECTION ( 'NONE',  ( 0.0000000000000000000, 0.0000000000000000000, 1.000000000000000000 ) ) ;
#107 = VERTEX_POINT ( 'NONE', #25 ) ;
#108 = DIRECTION ( 'NONE',  ( 0.0000000000000000000, 0.0000000000000000000, 1.000000000000000000 ) ) ;
#109 = ORIENTED_EDGE ( 'NONE', *, *, #116, .F. ) ;
#110 =( NAMED_UNIT ( * ) PLANE_ANGLE_UNIT ( ) SI_UNIT ( $, .RADIAN. ) );
#111 = PRODUCT ( 'BRM 70x10', 'BRM 70x10', '', ( #18 ) ) ;
#112 = EDGE_CURVE ( 'NONE', #107, #20, #291, .T. ) ;
#113 = CARTESIAN_POINT ( 'NONE',  ( -46.22222222222222143, 0.0000000000000000000, 35.00000000000000000 ) ) ;
#114 = CARTESIAN_POINT ( 'NONE',  ( 133.9829059829060043, 6.735557395310442615E-15, -55.00000000000000000 ) ) ;
#115 = CARTESIAN_POINT ( 'NONE',  ( -5.517094017094055225, 0.0000000000000000000, 35.00000000000000000 ) ) ;
#116 = EDGE_CURVE ( 'NONE', #34, #150, #53, .T. ) ;
#117 = APPLICATION_PROTOCOL_DEFINITION ( 'draft international standard', 'automotive_design', 1998, #274 ) ;
#118 = AXIS2_PLACEMENT_3D ( 'NONE', #215, #1, #264 ) ;
#119 = CIRCLE ( 'NONE', #87, 55.00000000000000000 ) ;
#120 = SHAPE_DEFINITION_REPRESENTATION ( #63, #95 ) ;
#121 = FACE_BOUND ( 'NONE', #203, .T. ) ;
#122 = ADVANCED_FACE ( 'NONE', ( #121, #75 ), #193, .F. ) ;
#123 = ORIENTED_EDGE ( 'NONE', *, *, #112, .F. ) ;
#124 = DIRECTION ( 'NONE',  ( 0.0000000000000000000, 0.0000000000000000000, -1.000000000000000000 ) ) ;
#125 = AXIS2_PLACEMENT_3D ( 'NONE', #78, #128, #224 ) ;
#126 = EDGE_CURVE ( 'NONE', #84, #265, #74, .T. ) ;
#127 = ORIENTED_EDGE ( 'NONE', *, *, #112, .T. ) ;
#128 = DIRECTION ( 'NONE',  ( -1.000000000000000000, -0.0000000000000000000, -0.0000000000000000000 ) ) ;
#129 = CARTESIAN_POINT ( 'NONE',  ( -5.517094017094055225, 0.0000000000000000000, 35.00000000000000000 ) ) ;
#130 =( GEOMETRIC_REPRESENTATION_CONTEXT ( 3 ) GLOBAL_UNCERTAINTY_ASSIGNED_CONTEXT ( ( #17 ) ) GLOBAL_UNIT_ASSIGNED_CONTEXT ( ( #187, #40, #302 ) ) REPRESENTATION_CONTEXT ( 'NONE', 'WORKASPACE' ) );
#131 = AXIS2_PLACEMENT_3D ( 'NONE', #91, #310, #149 ) ;
#132 = COLOUR_RGB ( '',0.7921568627450980005, 0.8196078431372548767, 0.9333333333333333481 ) ;
#133 = CARTESIAN_POINT ( 'NONE',  ( -5.517094017094055225, 4.286263797015736496E-15, -35.00000000000000000 ) ) ;
#134 = ORIENTED_EDGE ( 'NONE', *, *, #163, .T. ) ;
#135 = CARTESIAN_POINT ( 'NONE',  ( -46.22222222222222143, 0.0000000000000000000, 0.0000000000000000000 ) ) ;
#136 = EDGE_LOOP ( 'NONE', ( #152, #160, #256, #81 ) ) ;
#137 = CARTESIAN_POINT ( 'NONE',  ( -6.017094017094014369, 4.347496136973096971E-15, -35.49999999999995026 ) ) ;
#138 = DIRECTION ( 'NONE',  ( 1.000000000000000000, -0.0000000000000000000, -0.0000000000000000000 ) ) ;
#139 = VECTOR ( 'NONE', #102, 1000.000000000000000 ) ;
#140 = DIRECTION ( 'NONE',  ( -1.000000000000000000, 0.0000000000000000000, 0.0000000000000000000 ) ) ;
#141 = VERTEX_POINT ( 'NONE', #49 ) ;
#142 = ADVANCED_FACE ( 'NONE', ( #179 ), #277, .F. ) ;
#143 = SURFACE_STYLE_FILL_AREA ( #64 ) ;
#144 = DIRECTION ( 'NONE',  ( 0.0000000000000000000, 0.0000000000000000000, 1.000000000000000000 ) ) ;
#145 = AXIS2_PLACEMENT_3D ( 'NONE', #244, #173, #8 ) ;
#146 = AXIS2_PLACEMENT_3D ( 'NONE', #250, #140, #176 ) ;
#147 = ORIENTED_EDGE ( 'NONE', *, *, #226, .F. ) ;
#148 = CARTESIAN_POINT ( 'NONE',  ( 133.9829059829060043, 4.347496136973098548E-15, 35.49999999999996447 ) ) ;
#149 = DIRECTION ( 'NONE',  ( 0.0000000000000000000, 0.0000000000000000000, -1.000000000000000000 ) ) ;
#150 = VERTEX_POINT ( 'NONE', #137 ) ;
#151 = AXIS2_PLACEMENT_3D ( 'NONE', #220, #55, #7 ) ;
#152 = ORIENTED_EDGE ( 'NONE', *, *, #245, .T. ) ;
#153 = CARTESIAN_POINT ( 'NONE',  ( -46.22222222222222143, 0.0000000000000000000, 0.0000000000000000000 ) ) ;
#154 = ADVANCED_FACE ( 'NONE', ( #279 ), #178, .F. ) ;
#155 = CARTESIAN_POINT ( 'NONE',  ( -46.22222222222222143, 0.0000000000000000000, 55.00000000000000000 ) ) ;
#156 = ORIENTED_EDGE ( 'NONE', *, *, #166, .T. ) ;
#157 = CARTESIAN_POINT ( 'NONE',  ( 133.9829059829060043, 4.347496136973098548E-15, 35.49999999999996447 ) ) ;
#158 = EDGE_LOOP ( 'NONE', ( #123, #93, #109, #48 ) ) ;
#159 = CARTESIAN_POINT ( 'NONE',  ( -5.517094017094055225, 0.0000000000000000000, 0.0000000000000000000 ) ) ;
#160 = ORIENTED_EDGE ( 'NONE', *, *, #226, .T. ) ;
#161 = AXIS2_PLACEMENT_3D ( 'NONE', #296, #222, #292 ) ;
#162 = VECTOR ( 'NONE', #218, 1000.000000000000000 ) ;
#163 = EDGE_CURVE ( 'NONE', #141, #72, #247, .T. ) ;
#164 = DIRECTION ( 'NONE',  ( 1.000000000000000000, -0.0000000000000000000, -0.0000000000000000000 ) ) ;
#165 = LINE ( 'NONE', #43, #70 ) ;
#166 = EDGE_CURVE ( 'NONE', #150, #34, #60, .T. ) ;
#167 = CARTESIAN_POINT ( 'NONE',  ( 133.9829059829060043, 0.0000000000000000000, -35.49999999999996447 ) ) ;
#168 = EDGE_CURVE ( 'NONE', #107, #150, #6, .T. ) ;
#169 = CLOSED_SHELL ( 'NONE', ( #237, #82, #142, #76, #86, #213, #122, #2, #154, #47 ) ) ;
#170 = ORIENTED_EDGE ( 'NONE', *, *, #126, .T. ) ;
#171 = AXIS2_PLACEMENT_3D ( 'NONE', #242, #189, #287 ) ;
#172 = ORIENTED_EDGE ( 'NONE', *, *, #51, .T. ) ;
#173 = DIRECTION ( 'NONE',  ( 1.000000000000000000, 0.0000000000000000000, 0.0000000000000000000 ) ) ;
#174 = ORIENTED_EDGE ( 'NONE', *, *, #289, .T. ) ;
#175 = FACE_OUTER_BOUND ( 'NONE', #136, .T. ) ;
#176 = DIRECTION ( 'NONE',  ( 0.0000000000000000000, 0.0000000000000000000, -1.000000000000000000 ) ) ;
#177 = CARTESIAN_POINT ( 'NONE',  ( -5.517094017094055225, 0.0000000000000000000, 0.0000000000000000000 ) ) ;
#178 = CONICAL_SURFACE ( 'NONE', #214, 35.00000000000000000, 0.7853981633974344012 ) ;
#179 = FACE_OUTER_BOUND ( 'NONE', #202, .T. ) ;
#180 = DIRECTION ( 'NONE',  ( 0.0000000000000000000, 0.0000000000000000000, 1.000000000000000000 ) ) ;
#181 = SURFACE_SIDE_STYLE ('',( #35 ) ) ;
#182 = ORIENTED_EDGE ( 'NONE', *, *, #309, .T. ) ;
#183 = CIRCLE ( 'NONE', #146, 35.00000000000000000 ) ;
#184 = STYLED_ITEM ( 'NONE', ( #255 ), #234 ) ;
#185 = DIRECTION ( 'NONE',  ( -0.7071067811865574537, 0.0000000000000000000, 0.7071067811865376918 ) ) ;
#186 = UNCERTAINTY_MEASURE_WITH_UNIT (LENGTH_MEASURE( 1.000000000000000082E-05 ), #68, 'distance_accuracy_value', 'NONE');
#187 =( LENGTH_UNIT ( ) NAMED_UNIT ( * ) SI_UNIT ( .MILLI., .METRE. ) );
#188 = AXIS2_PLACEMENT_3D ( 'NONE', #259, #308, #108 ) ;
#189 = DIRECTION ( 'NONE',  ( 1.000000000000000000, -0.0000000000000000000, -0.0000000000000000000 ) ) ;
#190 = ORIENTED_EDGE ( 'NONE', *, *, #168, .F. ) ;
#191 = EDGE_CURVE ( 'NONE', #20, #107, #183, .T. ) ;
#192 = EDGE_LOOP ( 'NONE', ( #249, #156 ) ) ;
#193 = PLANE ( 'NONE',  #14 ) ;
#194 = VECTOR ( 'NONE', #199, 1000.000000000000000 ) ;
#195 = VECTOR ( 'NONE', #227, 1000.000000000000000 ) ;
#196 = CARTESIAN_POINT ( 'NONE',  ( 133.9829059829060043, 0.0000000000000000000, 0.0000000000000000000 ) ) ;
#197 = LINE ( 'NONE', #294, #139 ) ;
#198 = DIRECTION ( 'NONE',  ( 0.0000000000000000000, 0.0000000000000000000, 1.000000000000000000 ) ) ;
#199 = DIRECTION ( 'NONE',  ( -1.000000000000000000, -0.0000000000000000000, -0.0000000000000000000 ) ) ;
#200 = ORIENTED_EDGE ( 'NONE', *, *, #191, .F. ) ;
#201 = DIRECTION ( 'NONE',  ( -1.000000000000000000, 0.0000000000000000000, 0.0000000000000000000 ) ) ;
#202 = EDGE_LOOP ( 'NONE', ( #105, #3, #127, #21 ) ) ;
#203 = EDGE_LOOP ( 'NONE', ( #9, #170 ) ) ;
#204 = FACE_BOUND ( 'NONE', #192, .T. ) ;
#205 = CIRCLE ( 'NONE', #171, 35.00000000000000000 ) ;
#206 = DIRECTION ( 'NONE',  ( -1.000000000000000000, -0.0000000000000000000, -0.0000000000000000000 ) ) ;
#207 = FILL_AREA_STYLE_COLOUR ( '', #67 ) ;
#208 = AXIS2_PLACEMENT_3D ( 'NONE', #177, #278, #268 ) ;
#209 = AXIS2_PLACEMENT_3D ( 'NONE', #12, #85, #235 ) ;
#210 = CARTESIAN_POINT ( 'NONE',  ( 0.0000000000000000000, 0.0000000000000000000, 0.0000000000000000000 ) ) ;
#211 = PRODUCT_RELATED_PRODUCT_CATEGORY ( 'part', '', ( #111 ) ) ;
#212 = ORIENTED_EDGE ( 'NONE', *, *, #24, .F. ) ;
#213 = ADVANCED_FACE ( 'NONE', ( #33 ), #56, .T. ) ;
#214 = AXIS2_PLACEMENT_3D ( 'NONE', #159, #201, #106 ) ;
#215 = CARTESIAN_POINT ( 'NONE',  ( -6.017094017094014369, 0.0000000000000000000, 0.0000000000000000000 ) ) ;
#216 = CARTESIAN_POINT ( 'NONE',  ( 133.4829059829060327, 0.0000000000000000000, 35.00000000000000000 ) ) ;
#217 = ORIENTED_EDGE ( 'NONE', *, *, #191, .T. ) ;
#218 = DIRECTION ( 'NONE',  ( 0.7071067811865573427, 8.659560562354814529E-17, 0.7071067811865378028 ) ) ;
#219 = CONICAL_SURFACE ( 'NONE', #238, 35.49999999999996447, 0.7853981633974346233 ) ;
#220 = CARTESIAN_POINT ( 'NONE',  ( 133.9829059829060043, 0.0000000000000000000, 0.0000000000000000000 ) ) ;
#221 = AXIS2_PLACEMENT_3D ( 'NONE', #196, #260, #262 ) ;
#222 = DIRECTION ( 'NONE',  ( -1.000000000000000000, -0.0000000000000000000, -0.0000000000000000000 ) ) ;
#223 = DIRECTION ( 'NONE',  ( -1.000000000000000000, -0.0000000000000000000, -0.0000000000000000000 ) ) ;
#224 = DIRECTION ( 'NONE',  ( 0.0000000000000000000, 0.0000000000000000000, 1.000000000000000000 ) ) ;
#225 = ORIENTED_EDGE ( 'NONE', *, *, #245, .F. ) ;
#226 = EDGE_CURVE ( 'NONE', #313, #231, #99, .T. ) ;
#227 = DIRECTION ( 'NONE',  ( -1.000000000000000000, -0.0000000000000000000, -0.0000000000000000000 ) ) ;
#228 = ORIENTED_EDGE ( 'NONE', *, *, #103, .F. ) ;
#229 = STYLED_ITEM ( 'NONE', ( #88 ), #95 ) ;
#230 = DIRECTION ( 'NONE',  ( -1.000000000000000000, -0.0000000000000000000, -0.0000000000000000000 ) ) ;
#231 = VERTEX_POINT ( 'NONE', #80 ) ;
#232 = SURFACE_STYLE_USAGE ( .BOTH. , #61 ) ;
#233 = EDGE_CURVE ( 'NONE', #92, #84, #300, .T. ) ;
#234 = MANIFOLD_SOLID_BREP ( 'Chamfer1', #169 ) ;
#235 = DIRECTION ( 'NONE',  ( 0.0000000000000000000, 0.0000000000000000000, 1.000000000000000000 ) ) ;
#236 = DIRECTION ( 'NONE',  ( 1.000000000000000000, 0.0000000000000000000, 0.0000000000000000000 ) ) ;
#237 = ADVANCED_FACE ( 'NONE', ( #16 ), #38, .F. ) ;
#238 = AXIS2_PLACEMENT_3D ( 'NONE', #254, #138, #11 ) ;
#239 = VECTOR ( 'NONE', #206, 1000.000000000000000 ) ;
#240 = EDGE_LOOP ( 'NONE', ( #147, #174, #134, #94 ) ) ;
#241 = EDGE_CURVE ( 'NONE', #92, #20, #311, .T. ) ;
#242 = CARTESIAN_POINT ( 'NONE',  ( 133.4829059829060327, 0.0000000000000000000, 0.0000000000000000000 ) ) ;
#243 = PRODUCT_DEFINITION_FORMATION_WITH_SPECIFIED_SOURCE ( 'ANY', '', #111, .NOT_KNOWN. ) ;
#244 = CARTESIAN_POINT ( 'NONE',  ( -6.017094017094014369, 0.0000000000000000000, 0.0000000000000000000 ) ) ;
#245 = EDGE_CURVE ( 'NONE', #141, #313, #119, .T. ) ;
#246 = ORIENTED_EDGE ( 'NONE', *, *, #233, .T. ) ;
#247 = LINE ( 'NONE', #155, #194 ) ;
#248 = CIRCLE ( 'NONE', #151, 35.49999999999996447 ) ;
#249 = ORIENTED_EDGE ( 'NONE', *, *, #116, .T. ) ;
#250 = CARTESIAN_POINT ( 'NONE',  ( -5.517094017094055225, 0.0000000000000000000, 0.0000000000000000000 ) ) ;
#251 = EDGE_LOOP ( 'NONE', ( #97, #228, #172, #303 ) ) ;
#252 = PRODUCT_DEFINITION ( 'UNKNOWN', '', #243, #307 ) ;
#253 = FILL_AREA_STYLE ('',( #83 ) ) ;
#254 = CARTESIAN_POINT ( 'NONE',  ( 133.9829059829060043, 0.0000000000000000000, 0.0000000000000000000 ) ) ;
#255 = PRESENTATION_STYLE_ASSIGNMENT (( #281 ) ) ;
#256 = ORIENTED_EDGE ( 'NONE', *, *, #309, .F. ) ;
#257 = CIRCLE ( 'NONE', #45, 55.00000000000000000 ) ;
#258 =( GEOMETRIC_REPRESENTATION_CONTEXT ( 3 ) GLOBAL_UNCERTAINTY_ASSIGNED_CONTEXT ( ( #288 ) ) GLOBAL_UNIT_ASSIGNED_CONTEXT ( ( #293, #275, #101 ) ) REPRESENTATION_CONTEXT ( 'NONE', 'WORKASPACE' ) );
#259 = CARTESIAN_POINT ( 'NONE',  ( -6.017094017094014369, 0.0000000000000000000, 0.0000000000000000000 ) ) ;
#260 = DIRECTION ( 'NONE',  ( 1.000000000000000000, -0.0000000000000000000, -0.0000000000000000000 ) ) ;
#261 = DIRECTION ( 'NONE',  ( -1.000000000000000000, -0.0000000000000000000, -0.0000000000000000000 ) ) ;
#262 = DIRECTION ( 'NONE',  ( 0.0000000000000000000, 0.0000000000000000000, -1.000000000000000000 ) ) ;
#263 = CARTESIAN_POINT ( 'NONE',  ( 133.4829059829060327, 0.0000000000000000000, 0.0000000000000000000 ) ) ;
#264 = DIRECTION ( 'NONE',  ( 0.0000000000000000000, 0.0000000000000000000, -1.000000000000000000 ) ) ;
#265 = VERTEX_POINT ( 'NONE', #167 ) ;
#266 = VECTOR ( 'NONE', #185, 999.9999999999998863 ) ;
#267 = ORIENTED_EDGE ( 'NONE', *, *, #286, .T. ) ;
#268 = DIRECTION ( 'NONE',  ( 0.0000000000000000000, 0.0000000000000000000, 1.000000000000000000 ) ) ;
#269 = ORIENTED_EDGE ( 'NONE', *, *, #103, .T. ) ;
#270 = MECHANICAL_DESIGN_GEOMETRIC_PRESENTATION_REPRESENTATION (  '', ( #229 ), #59 ) ;
#271 = ORIENTED_EDGE ( 'NONE', *, *, #289, .F. ) ;
#272 = EDGE_CURVE ( 'NONE', #92, #13, #98, .T. ) ;
#273 = FACE_OUTER_BOUND ( 'NONE', #312, .T. ) ;
#274 = APPLICATION_CONTEXT ( 'automotive_design' ) ;
#275 =( NAMED_UNIT ( * ) PLANE_ANGLE_UNIT ( ) SI_UNIT ( $, .RADIAN. ) );
#276 = EDGE_LOOP ( 'NONE', ( #225, #271 ) ) ;
#277 = CYLINDRICAL_SURFACE ( 'NONE', #161, 35.00000000000000000 ) ;
#278 = DIRECTION ( 'NONE',  ( -1.000000000000000000, 0.0000000000000000000, 0.0000000000000000000 ) ) ;
#279 = FACE_OUTER_BOUND ( 'NONE', #299, .T. ) ;
#280 = DIRECTION ( 'NONE',  ( -1.000000000000000000, -0.0000000000000000000, -0.0000000000000000000 ) ) ;
#281 = SURFACE_STYLE_USAGE ( .BOTH. , #181 ) ;
#282 = ORIENTED_EDGE ( 'NONE', *, *, #241, .T. ) ;
#283 = AXIS2_PLACEMENT_3D ( 'NONE', #69, #22, #124 ) ;
#284 = MECHANICAL_DESIGN_GEOMETRIC_PRESENTATION_REPRESENTATION (  '', ( #184 ), #258 ) ;
#285 = DIRECTION ( 'NONE',  ( 0.0000000000000000000, 0.0000000000000000000, 1.000000000000000000 ) ) ;
#286 = EDGE_CURVE ( 'NONE', #20, #34, #89, .T. ) ;
#287 = DIRECTION ( 'NONE',  ( 0.0000000000000000000, 0.0000000000000000000, 1.000000000000000000 ) ) ;
#288 = UNCERTAINTY_MEASURE_WITH_UNIT (LENGTH_MEASURE( 1.000000000000000082E-05 ), #293, 'distance_accuracy_value', 'NONE');
#289 = EDGE_CURVE ( 'NONE', #313, #141, #305, .T. ) ;
#290 = ORIENTED_EDGE ( 'NONE', *, *, #295, .F. ) ;
#291 = CIRCLE ( 'NONE', #283, 35.00000000000000000 ) ;
#292 = DIRECTION ( 'NONE',  ( 0.0000000000000000000, 0.0000000000000000000, 1.000000000000000000 ) ) ;
#293 =( LENGTH_UNIT ( ) NAMED_UNIT ( * ) SI_UNIT ( .MILLI., .METRE. ) );
#294 = CARTESIAN_POINT ( 'NONE',  ( 133.9829059829060043, 0.0000000000000000000, -35.49999999999996447 ) ) ;
#295 = EDGE_CURVE ( 'NONE', #13, #107, #165, .T. ) ;
#296 = CARTESIAN_POINT ( 'NONE',  ( -46.22222222222222143, 0.0000000000000000000, 0.0000000000000000000 ) ) ;
#297 = FACE_OUTER_BOUND ( 'NONE', #158, .T. ) ;
#298 = CARTESIAN_POINT ( 'NONE',  ( -46.22222222222222143, 6.735557395310442615E-15, -55.00000000000000000 ) ) ;
#299 = EDGE_LOOP ( 'NONE', ( #190, #200, #267, #44 ) ) ;
#300 = LINE ( 'NONE', #157, #162 ) ;
#301 = ORIENTED_EDGE ( 'NONE', *, *, #28, .T. ) ;
#302 =( NAMED_UNIT ( * ) SI_UNIT ( $, .STERADIAN. ) SOLID_ANGLE_UNIT ( ) );
#303 = ORIENTED_EDGE ( 'NONE', *, *, #126, .F. ) ;
#304 =( NAMED_UNIT ( * ) SI_UNIT ( $, .STERADIAN. ) SOLID_ANGLE_UNIT ( ) );
#305 = CIRCLE ( 'NONE', #209, 55.00000000000000000 ) ;
#306 = DIRECTION ( 'NONE',  ( 0.0000000000000000000, 0.0000000000000000000, 1.000000000000000000 ) ) ;
#307 = PRODUCT_DEFINITION_CONTEXT ( 'detailed design', #274, 'design' ) ;
#308 = DIRECTION ( 'NONE',  ( -1.000000000000000000, -0.0000000000000000000, -0.0000000000000000000 ) ) ;
#309 = EDGE_CURVE ( 'NONE', #72, #231, #65, .T. ) ;
#310 = DIRECTION ( 'NONE',  ( 1.000000000000000000, 0.0000000000000000000, 0.0000000000000000000 ) ) ;
#311 = LINE ( 'NONE', #113, #239 ) ;
#312 = EDGE_LOOP ( 'NONE', ( #290, #269, #282, #217 ) ) ;
#313 = VERTEX_POINT ( 'NONE', #114 ) ;
#314 = AXIS2_PLACEMENT_3D ( 'NONE', #153, #223, #198 ) ;
ENDSEC;
END-ISO-10303-21;
