ISO-10303-21;
HEADER;
FILE_DESCRIPTION (( 'STEP AP214' ),
    '1' );
FILE_NAME ('BRM 30x12.step',
    '2020-09-08T10:23:32',
    ( '' ),
    ( '' ),
    'SwSTEP 2.0',
    'SolidWorks 2020',
    '' );
FILE_SCHEMA (( 'AUTOMOTIVE_DESIGN' ));
ENDSEC;

DATA;
#1 =( GEOMETRIC_REPRESENTATION_CONTEXT ( 3 ) GLOBAL_UNCERTAINTY_ASSIGNED_CONTEXT ( ( #292 ) ) GLOBAL_UNIT_ASSIGNED_CONTEXT ( ( #6, #241, #105 ) ) REPRESENTATION_CONTEXT ( 'NONE', 'WORKASPACE' ) );
#2 = DIRECTION ( 'NONE',  ( -1.000000000000000000, -0.0000000000000000000, -0.0000000000000000000 ) ) ;
#3 = DIRECTION ( 'NONE',  ( -1.000000000000000000, -0.0000000000000000000, -0.0000000000000000000 ) ) ;
#4 = CARTESIAN_POINT ( 'NONE',  ( 53.98290598290597586, 0.0000000000000000000, 0.0000000000000000000 ) ) ;
#5 = CARTESIAN_POINT ( 'NONE',  ( 53.98290598290597586, 0.0000000000000000000, 0.0000000000000000000 ) ) ;
#6 =( LENGTH_UNIT ( ) NAMED_UNIT ( * ) SI_UNIT ( .MILLI., .METRE. ) );
#7 = FACE_BOUND ( 'NONE', #84, .T. ) ;
#8 = APPLICATION_CONTEXT ( 'automotive_design' ) ;
#9 = CARTESIAN_POINT ( 'NONE',  ( 53.98290598290597586, 0.0000000000000000000, 0.0000000000000000000 ) ) ;
#10 = PRESENTATION_LAYER_ASSIGNMENT (  '', '', ( #233 ) ) ;
#11 = DIRECTION ( 'NONE',  ( 1.000000000000000000, -0.0000000000000000000, -0.0000000000000000000 ) ) ;
#12 = ADVANCED_FACE ( 'NONE', ( #165 ), #213, .T. ) ;
#13 = FACE_OUTER_BOUND ( 'NONE', #90, .T. ) ;
#14 = ADVANCED_BREP_SHAPE_REPRESENTATION ( 'BRM 30x12', ( #260, #153 ), #257 ) ;
#15 = EDGE_CURVE ( 'NONE', #94, #159, #314, .T. ) ;
#16 = EDGE_LOOP ( 'NONE', ( #309, #17, #114, #230 ) ) ;
#17 = ORIENTED_EDGE ( 'NONE', *, *, #239, .F. ) ;
#18 = ORIENTED_EDGE ( 'NONE', *, *, #176, .T. ) ;
#19 = COLOUR_RGB ( '',0.7921568627450980005, 0.8196078431372548767, 0.9333333333333333481 ) ;
#20 = VERTEX_POINT ( 'NONE', #191 ) ;
#21 = DIRECTION ( 'NONE',  ( 0.0000000000000000000, 0.0000000000000000000, 1.000000000000000000 ) ) ;
#22 = DIRECTION ( 'NONE',  ( -1.000000000000000000, -0.0000000000000000000, -0.0000000000000000000 ) ) ;
#23 = SURFACE_STYLE_FILL_AREA ( #262 ) ;
#24 = CARTESIAN_POINT ( 'NONE',  ( -5.517094017094000158, 0.0000000000000000000, 0.0000000000000000000 ) ) ;
#25 = CYLINDRICAL_SURFACE ( 'NONE', #179, 15.00000000000000000 ) ;
#26 = CARTESIAN_POINT ( 'NONE',  ( -46.22222222222222143, 0.0000000000000000000, 0.0000000000000000000 ) ) ;
#27 = PRESENTATION_LAYER_ASSIGNMENT (  '', '', ( #46 ) ) ;
#28 = DIRECTION ( 'NONE',  ( 0.0000000000000000000, 0.0000000000000000000, -1.000000000000000000 ) ) ;
#29 =( LENGTH_UNIT ( ) NAMED_UNIT ( * ) SI_UNIT ( .MILLI., .METRE. ) );
#30 = CARTESIAN_POINT ( 'NONE',  ( 53.98290598290597586, 0.0000000000000000000, 0.0000000000000000000 ) ) ;
#31 = DIRECTION ( 'NONE',  ( -1.000000000000000000, -0.0000000000000000000, -0.0000000000000000000 ) ) ;
#32 = CARTESIAN_POINT ( 'NONE',  ( 53.98290598290597586, 1.898202538678399135E-15, 15.50000000000001243 ) ) ;
#33 = AXIS2_PLACEMENT_3D ( 'NONE', #240, #126, #220 ) ;
#34 = AXIS2_PLACEMENT_3D ( 'NONE', #306, #184, #281 ) ;
#35 = FACE_OUTER_BOUND ( 'NONE', #208, .T. ) ;
#36 = CIRCLE ( 'NONE', #250, 15.50000000000001243 ) ;
#37 =( NAMED_UNIT ( * ) SI_UNIT ( $, .STERADIAN. ) SOLID_ANGLE_UNIT ( ) );
#38 = ORIENTED_EDGE ( 'NONE', *, *, #239, .T. ) ;
#39 = EDGE_CURVE ( 'NONE', #40, #47, #266, .T. ) ;
#40 = VERTEX_POINT ( 'NONE', #53 ) ;
#41 = CIRCLE ( 'NONE', #217, 15.00000000000000000 ) ;
#42 = AXIS2_PLACEMENT_3D ( 'NONE', #247, #142, #171 ) ;
#43 = ADVANCED_FACE ( 'NONE', ( #263 ), #200, .F. ) ;
#44 = VERTEX_POINT ( 'NONE', #124 ) ;
#45 = VERTEX_POINT ( 'NONE', #149 ) ;
#46 = STYLED_ITEM ( 'NONE', ( #48 ), #260 ) ;
#47 = VERTEX_POINT ( 'NONE', #312 ) ;
#48 = PRESENTATION_STYLE_ASSIGNMENT (( #195 ) ) ;
#49 = DIRECTION ( 'NONE',  ( 0.0000000000000000000, 0.0000000000000000000, 1.000000000000000000 ) ) ;
#50 = CARTESIAN_POINT ( 'NONE',  ( -46.22222222222222143, 0.0000000000000000000, 30.00000000000000000 ) ) ;
#51 = CARTESIAN_POINT ( 'NONE',  ( 53.98290598290597586, 1.898202538678399135E-15, 15.50000000000001243 ) ) ;
#52 = PRODUCT_RELATED_PRODUCT_CATEGORY ( 'part', '', ( #121 ) ) ;
#53 = CARTESIAN_POINT ( 'NONE',  ( -5.517094017094000158, 1.836970198721029589E-15, -15.00000000000000000 ) ) ;
#54 = FILL_AREA_STYLE_COLOUR ( '', #308 ) ;
#55 = CARTESIAN_POINT ( 'NONE',  ( -5.517094017094000158, 0.0000000000000000000, 15.00000000000000000 ) ) ;
#56 = AXIS2_PLACEMENT_3D ( 'NONE', #272, #273, #223 ) ;
#57 =( NAMED_UNIT ( * ) PLANE_ANGLE_UNIT ( ) SI_UNIT ( $, .RADIAN. ) );
#58 = DIRECTION ( 'NONE',  ( -0.0000000000000000000, 0.0000000000000000000, 1.000000000000000000 ) ) ;
#59 = FACE_OUTER_BOUND ( 'NONE', #71, .T. ) ;
#60 = DIRECTION ( 'NONE',  ( -0.7071067811865561215, 0.0000000000000000000, 0.7071067811865389130 ) ) ;
#61 = AXIS2_PLACEMENT_3D ( 'NONE', #209, #138, #231 ) ;
#62 = SURFACE_STYLE_USAGE ( .BOTH. , #287 ) ;
#63 = ADVANCED_FACE ( 'NONE', ( #77 ), #110, .F. ) ;
#64 = CIRCLE ( 'NONE', #197, 30.00000000000000000 ) ;
#65 = ORIENTED_EDGE ( 'NONE', *, *, #155, .F. ) ;
#66 = EDGE_CURVE ( 'NONE', #211, #45, #173, .T. ) ;
#67 = ORIENTED_EDGE ( 'NONE', *, *, #92, .F. ) ;
#68 = ORIENTED_EDGE ( 'NONE', *, *, #182, .T. ) ;
#69 = EDGE_CURVE ( 'NONE', #159, #94, #36, .T. ) ;
#70 = EDGE_LOOP ( 'NONE', ( #162, #258, #141, #256 ) ) ;
#71 = EDGE_LOOP ( 'NONE', ( #229, #91 ) ) ;
#72 = CIRCLE ( 'NONE', #174, 30.00000000000000000 ) ;
#73 = LINE ( 'NONE', #293, #185 ) ;
#74 = FACE_OUTER_BOUND ( 'NONE', #311, .T. ) ;
#75 = CARTESIAN_POINT ( 'NONE',  ( 53.98290598290597586, 0.0000000000000000000, 0.0000000000000000000 ) ) ;
#76 = DIRECTION ( 'NONE',  ( 0.0000000000000000000, 0.0000000000000000000, 1.000000000000000000 ) ) ;
#77 = FACE_OUTER_BOUND ( 'NONE', #70, .T. ) ;
#78 = CARTESIAN_POINT ( 'NONE',  ( 53.48290598290597586, 1.836970198721029589E-15, -15.00000000000000000 ) ) ;
#79 = LINE ( 'NONE', #32, #113 ) ;
#80 = CIRCLE ( 'NONE', #56, 15.00000000000000000 ) ;
#81 = SURFACE_STYLE_FILL_AREA ( #235 ) ;
#82 = PLANE ( 'NONE',  #117 ) ;
#83 = DIRECTION ( 'NONE',  ( -1.000000000000000000, -0.0000000000000000000, -0.0000000000000000000 ) ) ;
#84 = EDGE_LOOP ( 'NONE', ( #68, #187 ) ) ;
#85 = CIRCLE ( 'NONE', #251, 30.00000000000000000 ) ;
#86 = ORIENTED_EDGE ( 'NONE', *, *, #278, .F. ) ;
#87 = EDGE_CURVE ( 'NONE', #259, #40, #73, .T. ) ;
#88 = DIRECTION ( 'NONE',  ( 1.000000000000000000, 0.0000000000000000000, 0.0000000000000000000 ) ) ;
#89 = EDGE_LOOP ( 'NONE', ( #283, #116, #18, #38 ) ) ;
#90 = EDGE_LOOP ( 'NONE', ( #280, #237, #284, #140 ) ) ;
#91 = ORIENTED_EDGE ( 'NONE', *, *, #297, .T. ) ;
#92 = EDGE_CURVE ( 'NONE', #96, #259, #41, .T. ) ;
#93 = ORIENTED_EDGE ( 'NONE', *, *, #269, .T. ) ;
#94 = VERTEX_POINT ( 'NONE', #51 ) ;
#95 = CYLINDRICAL_SURFACE ( 'NONE', #206, 30.00000000000000000 ) ;
#96 = VERTEX_POINT ( 'NONE', #166 ) ;
#97 = DIRECTION ( 'NONE',  ( -1.000000000000000000, -0.0000000000000000000, -0.0000000000000000000 ) ) ;
#98 = EDGE_CURVE ( 'NONE', #96, #94, #79, .T. ) ;
#99 = DIRECTION ( 'NONE',  ( -1.000000000000000000, -0.0000000000000000000, -0.0000000000000000000 ) ) ;
#100 = CARTESIAN_POINT ( 'NONE',  ( -46.22222222222222143, 0.0000000000000000000, 0.0000000000000000000 ) ) ;
#101 = CLOSED_SHELL ( 'NONE', ( #210, #43, #180, #12, #137, #246, #115, #310, #224, #63 ) ) ;
#102 = DIRECTION ( 'NONE',  ( 0.0000000000000000000, 0.0000000000000000000, 1.000000000000000000 ) ) ;
#103 = DIRECTION ( 'NONE',  ( 1.000000000000000000, -0.0000000000000000000, -0.0000000000000000000 ) ) ;
#104 = DIRECTION ( 'NONE',  ( -1.000000000000000000, -0.0000000000000000000, -0.0000000000000000000 ) ) ;
#105 =( NAMED_UNIT ( * ) SI_UNIT ( $, .STERADIAN. ) SOLID_ANGLE_UNIT ( ) );
#106 = DIRECTION ( 'NONE',  ( 0.7071067811865389130, 0.0000000000000000000, -0.7071067811865561215 ) ) ;
#107 = EDGE_CURVE ( 'NONE', #40, #139, #80, .T. ) ;
#108 = AXIS2_PLACEMENT_3D ( 'NONE', #26, #31, #219 ) ;
#109 = CARTESIAN_POINT ( 'NONE',  ( -6.017094017094014369, 0.0000000000000000000, 0.0000000000000000000 ) ) ;
#110 = CONICAL_SURFACE ( 'NONE', #202, 15.50000000000001243, 0.7853981633974604915 ) ;
#111 = CARTESIAN_POINT ( 'NONE',  ( 0.0000000000000000000, 0.0000000000000000000, 0.0000000000000000000 ) ) ;
#112 = ORIENTED_EDGE ( 'NONE', *, *, #143, .F. ) ;
#113 = VECTOR ( 'NONE', #249, 1000.000000000000000 ) ;
#114 = ORIENTED_EDGE ( 'NONE', *, *, #143, .T. ) ;
#115 = ADVANCED_FACE ( 'NONE', ( #268, #35 ), #248, .F. ) ;
#116 = ORIENTED_EDGE ( 'NONE', *, *, #282, .T. ) ;
#117 = AXIS2_PLACEMENT_3D ( 'NONE', #148, #265, #152 ) ;
#118 = FACE_OUTER_BOUND ( 'NONE', #212, .T. ) ;
#119 = CIRCLE ( 'NONE', #275, 15.50000000000000178 ) ;
#120 = ORIENTED_EDGE ( 'NONE', *, *, #170, .F. ) ;
#121 = PRODUCT ( 'BRM 30x12', 'BRM 30x12', '', ( #201 ) ) ;
#122 = CARTESIAN_POINT ( 'NONE',  ( -46.22222222222222143, 0.0000000000000000000, 0.0000000000000000000 ) ) ;
#123 = CARTESIAN_POINT ( 'NONE',  ( -6.017094017094014369, 0.0000000000000000000, 0.0000000000000000000 ) ) ;
#124 = CARTESIAN_POINT ( 'NONE',  ( 53.98290598290597586, 3.673940397442059178E-15, -30.00000000000000000 ) ) ;
#125 = MECHANICAL_DESIGN_GEOMETRIC_PRESENTATION_REPRESENTATION (  '', ( #233 ), #132 ) ;
#126 = DIRECTION ( 'NONE',  ( -1.000000000000000000, -0.0000000000000000000, -0.0000000000000000000 ) ) ;
#127 = CARTESIAN_POINT ( 'NONE',  ( 53.98290598290597586, 0.0000000000000000000, -15.50000000000001243 ) ) ;
#128 = UNCERTAINTY_MEASURE_WITH_UNIT (LENGTH_MEASURE( 1.000000000000000082E-05 ), #29, 'distance_accuracy_value', 'NONE');
#129 = DIRECTION ( 'NONE',  ( 0.0000000000000000000, 0.0000000000000000000, -1.000000000000000000 ) ) ;
#130 = DIRECTION ( 'NONE',  ( 0.0000000000000000000, 0.0000000000000000000, 1.000000000000000000 ) ) ;
#131 = VECTOR ( 'NONE', #167, 1000.000000000000000 ) ;
#132 =( GEOMETRIC_REPRESENTATION_CONTEXT ( 3 ) GLOBAL_UNCERTAINTY_ASSIGNED_CONTEXT ( ( #274 ) ) GLOBAL_UNIT_ASSIGNED_CONTEXT ( ( #177, #204, #37 ) ) REPRESENTATION_CONTEXT ( 'NONE', 'WORKASPACE' ) );
#133 = DIRECTION ( 'NONE',  ( -1.000000000000000000, -0.0000000000000000000, -0.0000000000000000000 ) ) ;
#134 = EDGE_CURVE ( 'NONE', #44, #45, #225, .T. ) ;
#135 = CONICAL_SURFACE ( 'NONE', #61, 15.00000000000000000, 0.7853981633974361776 ) ;
#136 = ORIENTED_EDGE ( 'NONE', *, *, #66, .F. ) ;
#137 = ADVANCED_FACE ( 'NONE', ( #7, #59 ), #82, .F. ) ;
#138 = DIRECTION ( 'NONE',  ( -1.000000000000000000, 0.0000000000000000000, 0.0000000000000000000 ) ) ;
#139 = VERTEX_POINT ( 'NONE', #222 ) ;
#140 = ORIENTED_EDGE ( 'NONE', *, *, #176, .F. ) ;
#141 = ORIENTED_EDGE ( 'NONE', *, *, #170, .T. ) ;
#142 = DIRECTION ( 'NONE',  ( 1.000000000000000000, 0.0000000000000000000, 0.0000000000000000000 ) ) ;
#143 = EDGE_CURVE ( 'NONE', #139, #302, #178, .T. ) ;
#144 = PRODUCT_DEFINITION_CONTEXT ( 'detailed design', #8, 'design' ) ;
#145 = ORIENTED_EDGE ( 'NONE', *, *, #278, .T. ) ;
#146 = CARTESIAN_POINT ( 'NONE',  ( 53.48290598290597586, 0.0000000000000000000, 0.0000000000000000000 ) ) ;
#147 = DIRECTION ( 'NONE',  ( 0.0000000000000000000, 0.0000000000000000000, 1.000000000000000000 ) ) ;
#148 = CARTESIAN_POINT ( 'NONE',  ( -6.017094017094014369, 15.00000000000000000, 0.0000000000000000000 ) ) ;
#149 = CARTESIAN_POINT ( 'NONE',  ( -6.017094017094014369, 3.673940397442059178E-15, -30.00000000000000000 ) ) ;
#150 = LINE ( 'NONE', #288, #186 ) ;
#151 = CIRCLE ( 'NONE', #300, 15.00000000000000000 ) ;
#152 = DIRECTION ( 'NONE',  ( 0.0000000000000000000, 0.0000000000000000000, -1.000000000000000000 ) ) ;
#153 = AXIS2_PLACEMENT_3D ( 'NONE', #111, #301, #88 ) ;
#154 = PRESENTATION_STYLE_ASSIGNMENT (( #62 ) ) ;
#155 = EDGE_CURVE ( 'NONE', #44, #20, #64, .T. ) ;
#156 = VECTOR ( 'NONE', #313, 1000.000000000000000 ) ;
#157 = ORIENTED_EDGE ( 'NONE', *, *, #39, .T. ) ;
#158 = ORIENTED_EDGE ( 'NONE', *, *, #297, .F. ) ;
#159 = VERTEX_POINT ( 'NONE', #127 ) ;
#160 = ORIENTED_EDGE ( 'NONE', *, *, #107, .F. ) ;
#161 = EDGE_LOOP ( 'NONE', ( #160, #157, #298, #112 ) ) ;
#162 = ORIENTED_EDGE ( 'NONE', *, *, #98, .F. ) ;
#163 = AXIS2_PLACEMENT_3D ( 'NONE', #24, #216, #49 ) ;
#164 = FILL_AREA_STYLE_COLOUR ( '', #19 ) ;
#165 = FACE_OUTER_BOUND ( 'NONE', #261, .T. ) ;
#166 = CARTESIAN_POINT ( 'NONE',  ( 53.48290598290597586, 0.0000000000000000000, 15.00000000000000000 ) ) ;
#167 = DIRECTION ( 'NONE',  ( -0.7071067811865561215, 8.659560562354828088E-17, -0.7071067811865389130 ) ) ;
#168 = CARTESIAN_POINT ( 'NONE',  ( -6.017094017094014369, 0.0000000000000000000, 15.50000000000000178 ) ) ;
#169 = FACE_OUTER_BOUND ( 'NONE', #16, .T. ) ;
#170 = EDGE_CURVE ( 'NONE', #259, #159, #150, .T. ) ;
#171 = DIRECTION ( 'NONE',  ( 0.0000000000000000000, 0.0000000000000000000, -1.000000000000000000 ) ) ;
#172 = DIRECTION ( 'NONE',  ( -1.000000000000000000, 0.0000000000000000000, -0.0000000000000000000 ) ) ;
#173 = CIRCLE ( 'NONE', #33, 30.00000000000000000 ) ;
#174 = AXIS2_PLACEMENT_3D ( 'NONE', #30, #3, #21 ) ;
#175 = APPLICATION_PROTOCOL_DEFINITION ( 'draft international standard', 'automotive_design', 1998, #277 ) ;
#176 = EDGE_CURVE ( 'NONE', #96, #139, #242, .T. ) ;
#177 =( LENGTH_UNIT ( ) NAMED_UNIT ( * ) SI_UNIT ( .MILLI., .METRE. ) );
#178 = LINE ( 'NONE', #55, #295 ) ;
#179 = AXIS2_PLACEMENT_3D ( 'NONE', #100, #270, #238 ) ;
#180 = ADVANCED_FACE ( 'NONE', ( #13 ), #199, .F. ) ;
#181 = AXIS2_PLACEMENT_3D ( 'NONE', #122, #2, #102 ) ;
#182 = EDGE_CURVE ( 'NONE', #302, #47, #119, .T. ) ;
#183 = ORIENTED_EDGE ( 'NONE', *, *, #155, .T. ) ;
#184 = DIRECTION ( 'NONE',  ( -1.000000000000000000, 0.0000000000000000000, 0.0000000000000000000 ) ) ;
#185 = VECTOR ( 'NONE', #99, 1000.000000000000000 ) ;
#186 = VECTOR ( 'NONE', #106, 1000.000000000000000 ) ;
#187 = ORIENTED_EDGE ( 'NONE', *, *, #276, .T. ) ;
#188 = CARTESIAN_POINT ( 'NONE',  ( -46.22222222222222143, 0.0000000000000000000, 0.0000000000000000000 ) ) ;
#189 = CARTESIAN_POINT ( 'NONE',  ( -5.517094017094000158, 1.836970198721029589E-15, -15.00000000000000000 ) ) ;
#190 = CARTESIAN_POINT ( 'NONE',  ( 53.48290598290597586, 0.0000000000000000000, 0.0000000000000000000 ) ) ;
#191 = CARTESIAN_POINT ( 'NONE',  ( 53.98290598290597586, 0.0000000000000000000, 30.00000000000000000 ) ) ;
#192 = LINE ( 'NONE', #50, #156 ) ;
#193 = DIRECTION ( 'NONE',  ( 0.0000000000000000000, 0.0000000000000000000, -1.000000000000000000 ) ) ;
#194 = DIRECTION ( 'NONE',  ( 0.0000000000000000000, 0.0000000000000000000, 1.000000000000000000 ) ) ;
#195 = SURFACE_STYLE_USAGE ( .BOTH. , #264 ) ;
#196 = CARTESIAN_POINT ( 'NONE',  ( -46.22222222222222143, 0.0000000000000000000, 15.00000000000000000 ) ) ;
#197 = AXIS2_PLACEMENT_3D ( 'NONE', #9, #226, #130 ) ;
#198 = DIRECTION ( 'NONE',  ( 0.0000000000000000000, 0.0000000000000000000, 1.000000000000000000 ) ) ;
#199 = CYLINDRICAL_SURFACE ( 'NONE', #108, 15.00000000000000000 ) ;
#200 = CONICAL_SURFACE ( 'NONE', #163, 15.00000000000000000, 0.7853981633974361776 ) ;
#201 = PRODUCT_CONTEXT ( 'NONE', #277, 'mechanical' ) ;
#202 = AXIS2_PLACEMENT_3D ( 'NONE', #75, #243, #28 ) ;
#203 = CIRCLE ( 'NONE', #34, 15.00000000000000000 ) ;
#204 =( NAMED_UNIT ( * ) PLANE_ANGLE_UNIT ( ) SI_UNIT ( $, .RADIAN. ) );
#205 = ORIENTED_EDGE ( 'NONE', *, *, #134, .T. ) ;
#206 = AXIS2_PLACEMENT_3D ( 'NONE', #188, #267, #198 ) ;
#207 = ORIENTED_EDGE ( 'NONE', *, *, #69, .T. ) ;
#208 = EDGE_LOOP ( 'NONE', ( #86, #65 ) ) ;
#209 = CARTESIAN_POINT ( 'NONE',  ( -5.517094017094000158, 0.0000000000000000000, 0.0000000000000000000 ) ) ;
#210 = ADVANCED_FACE ( 'NONE', ( #74 ), #255, .F. ) ;
#211 = VERTEX_POINT ( 'NONE', #291 ) ;
#212 = EDGE_LOOP ( 'NONE', ( #279, #183, #93, #158 ) ) ;
#213 = CYLINDRICAL_SURFACE ( 'NONE', #181, 30.00000000000000000 ) ;
#214 = DIRECTION ( 'NONE',  ( 0.0000000000000000000, 0.0000000000000000000, 1.000000000000000000 ) ) ;
#215 = PRODUCT_DEFINITION ( 'UNKNOWN', '', #244, #144 ) ;
#216 = DIRECTION ( 'NONE',  ( -1.000000000000000000, 0.0000000000000000000, 0.0000000000000000000 ) ) ;
#217 = AXIS2_PLACEMENT_3D ( 'NONE', #146, #11, #76 ) ;
#218 = CIRCLE ( 'NONE', #42, 15.50000000000000178 ) ;
#219 = DIRECTION ( 'NONE',  ( 0.0000000000000000000, 0.0000000000000000000, 1.000000000000000000 ) ) ;
#220 = DIRECTION ( 'NONE',  ( 0.0000000000000000000, 0.0000000000000000000, 1.000000000000000000 ) ) ;
#221 =( NAMED_UNIT ( * ) SI_UNIT ( $, .STERADIAN. ) SOLID_ANGLE_UNIT ( ) );
#222 = CARTESIAN_POINT ( 'NONE',  ( -5.517094017094000158, 0.0000000000000000000, 15.00000000000000000 ) ) ;
#223 = DIRECTION ( 'NONE',  ( 0.0000000000000000000, 0.0000000000000000000, -1.000000000000000000 ) ) ;
#224 = ADVANCED_FACE ( 'NONE', ( #169 ), #135, .F. ) ;
#225 = LINE ( 'NONE', #296, #254 ) ;
#226 = DIRECTION ( 'NONE',  ( -1.000000000000000000, -0.0000000000000000000, -0.0000000000000000000 ) ) ;
#227 = AXIS2_PLACEMENT_3D ( 'NONE', #271, #172, #58 ) ;
#228 = VECTOR ( 'NONE', #83, 1000.000000000000000 ) ;
#229 = ORIENTED_EDGE ( 'NONE', *, *, #66, .T. ) ;
#230 = ORIENTED_EDGE ( 'NONE', *, *, #276, .F. ) ;
#231 = DIRECTION ( 'NONE',  ( 0.0000000000000000000, 0.0000000000000000000, 1.000000000000000000 ) ) ;
#232 = AXIS2_PLACEMENT_3D ( 'NONE', #4, #103, #193 ) ;
#233 = STYLED_ITEM ( 'NONE', ( #154 ), #14 ) ;
#234 = ORIENTED_EDGE ( 'NONE', *, *, #69, .F. ) ;
#235 = FILL_AREA_STYLE ('',( #54 ) ) ;
#236 = PRODUCT_DEFINITION_SHAPE ( 'NONE', 'NONE',  #215 ) ;
#237 = ORIENTED_EDGE ( 'NONE', *, *, #87, .T. ) ;
#238 = DIRECTION ( 'NONE',  ( 0.0000000000000000000, 0.0000000000000000000, 1.000000000000000000 ) ) ;
#239 = EDGE_CURVE ( 'NONE', #139, #40, #203, .T. ) ;
#240 = CARTESIAN_POINT ( 'NONE',  ( -6.017094017094014369, 0.0000000000000000000, 0.0000000000000000000 ) ) ;
#241 =( NAMED_UNIT ( * ) PLANE_ANGLE_UNIT ( ) SI_UNIT ( $, .RADIAN. ) );
#242 = LINE ( 'NONE', #196, #228 ) ;
#243 = DIRECTION ( 'NONE',  ( 1.000000000000000000, -0.0000000000000000000, -0.0000000000000000000 ) ) ;
#244 = PRODUCT_DEFINITION_FORMATION_WITH_SPECIFIED_SOURCE ( 'ANY', '', #121, .NOT_KNOWN. ) ;
#245 = FACE_OUTER_BOUND ( 'NONE', #89, .T. ) ;
#246 = ADVANCED_FACE ( 'NONE', ( #118 ), #95, .T. ) ;
#247 = CARTESIAN_POINT ( 'NONE',  ( -6.017094017094014369, 0.0000000000000000000, 0.0000000000000000000 ) ) ;
#248 = PLANE ( 'NONE',  #227 ) ;
#249 = DIRECTION ( 'NONE',  ( 0.7071067811865389130, 8.659560562355038861E-17, 0.7071067811865561215 ) ) ;
#250 = AXIS2_PLACEMENT_3D ( 'NONE', #5, #104, #194 ) ;
#251 = AXIS2_PLACEMENT_3D ( 'NONE', #123, #97, #147 ) ;
#252 = SHAPE_DEFINITION_REPRESENTATION ( #236, #14 ) ;
#253 = APPLICATION_PROTOCOL_DEFINITION ( 'draft international standard', 'automotive_design', 1998, #8 ) ;
#254 = VECTOR ( 'NONE', #133, 1000.000000000000000 ) ;
#255 = CONICAL_SURFACE ( 'NONE', #232, 15.50000000000001243, 0.7853981633974604915 ) ;
#256 = ORIENTED_EDGE ( 'NONE', *, *, #15, .F. ) ;
#257 =( GEOMETRIC_REPRESENTATION_CONTEXT ( 3 ) GLOBAL_UNCERTAINTY_ASSIGNED_CONTEXT ( ( #128 ) ) GLOBAL_UNIT_ASSIGNED_CONTEXT ( ( #29, #57, #221 ) ) REPRESENTATION_CONTEXT ( 'NONE', 'WORKASPACE' ) );
#258 = ORIENTED_EDGE ( 'NONE', *, *, #282, .F. ) ;
#259 = VERTEX_POINT ( 'NONE', #78 ) ;
#260 = MANIFOLD_SOLID_BREP ( 'Chamfer1', #101 ) ;
#261 = EDGE_LOOP ( 'NONE', ( #145, #205, #136, #285 ) ) ;
#262 = FILL_AREA_STYLE ('',( #164 ) ) ;
#263 = FACE_OUTER_BOUND ( 'NONE', #161, .T. ) ;
#264 = SURFACE_SIDE_STYLE ('',( #81 ) ) ;
#265 = DIRECTION ( 'NONE',  ( 1.000000000000000000, 0.0000000000000000000, 0.0000000000000000000 ) ) ;
#266 = LINE ( 'NONE', #189, #131 ) ;
#267 = DIRECTION ( 'NONE',  ( -1.000000000000000000, -0.0000000000000000000, -0.0000000000000000000 ) ) ;
#268 = FACE_BOUND ( 'NONE', #307, .T. ) ;
#269 = EDGE_CURVE ( 'NONE', #20, #211, #192, .T. ) ;
#270 = DIRECTION ( 'NONE',  ( -1.000000000000000000, -0.0000000000000000000, -0.0000000000000000000 ) ) ;
#271 = CARTESIAN_POINT ( 'NONE',  ( 53.98290598290597586, 30.00000000000000000, 0.0000000000000000000 ) ) ;
#272 = CARTESIAN_POINT ( 'NONE',  ( -5.517094017094000158, 0.0000000000000000000, 0.0000000000000000000 ) ) ;
#273 = DIRECTION ( 'NONE',  ( -1.000000000000000000, 0.0000000000000000000, 0.0000000000000000000 ) ) ;
#274 = UNCERTAINTY_MEASURE_WITH_UNIT (LENGTH_MEASURE( 1.000000000000000082E-05 ), #177, 'distance_accuracy_value', 'NONE');
#275 = AXIS2_PLACEMENT_3D ( 'NONE', #109, #294, #129 ) ;
#276 = EDGE_CURVE ( 'NONE', #47, #302, #218, .T. ) ;
#277 = APPLICATION_CONTEXT ( 'automotive_design' ) ;
#278 = EDGE_CURVE ( 'NONE', #20, #44, #72, .T. ) ;
#279 = ORIENTED_EDGE ( 'NONE', *, *, #134, .F. ) ;
#280 = ORIENTED_EDGE ( 'NONE', *, *, #92, .T. ) ;
#281 = DIRECTION ( 'NONE',  ( 0.0000000000000000000, 0.0000000000000000000, -1.000000000000000000 ) ) ;
#282 = EDGE_CURVE ( 'NONE', #259, #96, #151, .T. ) ;
#283 = ORIENTED_EDGE ( 'NONE', *, *, #87, .F. ) ;
#284 = ORIENTED_EDGE ( 'NONE', *, *, #107, .T. ) ;
#285 = ORIENTED_EDGE ( 'NONE', *, *, #269, .F. ) ;
#286 = DIRECTION ( 'NONE',  ( 0.0000000000000000000, 0.0000000000000000000, 1.000000000000000000 ) ) ;
#287 = SURFACE_SIDE_STYLE ('',( #23 ) ) ;
#288 = CARTESIAN_POINT ( 'NONE',  ( 53.98290598290597586, 0.0000000000000000000, -15.50000000000001243 ) ) ;
#289 = CARTESIAN_POINT ( 'NONE',  ( 53.98290598290597586, 0.0000000000000000000, 0.0000000000000000000 ) ) ;
#290 = DIRECTION ( 'NONE',  ( 1.000000000000000000, -0.0000000000000000000, -0.0000000000000000000 ) ) ;
#291 = CARTESIAN_POINT ( 'NONE',  ( -6.017094017094014369, 0.0000000000000000000, 30.00000000000000000 ) ) ;
#292 = UNCERTAINTY_MEASURE_WITH_UNIT (LENGTH_MEASURE( 1.000000000000000082E-05 ), #6, 'distance_accuracy_value', 'NONE');
#293 = CARTESIAN_POINT ( 'NONE',  ( -46.22222222222222143, 1.836970198721029589E-15, -15.00000000000000000 ) ) ;
#294 = DIRECTION ( 'NONE',  ( 1.000000000000000000, 0.0000000000000000000, 0.0000000000000000000 ) ) ;
#295 = VECTOR ( 'NONE', #60, 1000.000000000000000 ) ;
#296 = CARTESIAN_POINT ( 'NONE',  ( -46.22222222222222143, 3.673940397442059178E-15, -30.00000000000000000 ) ) ;
#297 = EDGE_CURVE ( 'NONE', #45, #211, #85, .T. ) ;
#298 = ORIENTED_EDGE ( 'NONE', *, *, #182, .F. ) ;
#299 = AXIS2_PLACEMENT_3D ( 'NONE', #289, #22, #286 ) ;
#300 = AXIS2_PLACEMENT_3D ( 'NONE', #190, #290, #214 ) ;
#301 = DIRECTION ( 'NONE',  ( 0.0000000000000000000, 0.0000000000000000000, 1.000000000000000000 ) ) ;
#302 = VERTEX_POINT ( 'NONE', #168 ) ;
#303 = MECHANICAL_DESIGN_GEOMETRIC_PRESENTATION_REPRESENTATION (  '', ( #46 ), #1 ) ;
#304 = ORIENTED_EDGE ( 'NONE', *, *, #98, .T. ) ;
#305 = ORIENTED_EDGE ( 'NONE', *, *, #15, .T. ) ;
#306 = CARTESIAN_POINT ( 'NONE',  ( -5.517094017094000158, 0.0000000000000000000, 0.0000000000000000000 ) ) ;
#307 = EDGE_LOOP ( 'NONE', ( #207, #305 ) ) ;
#308 = COLOUR_RGB ( '',0.7921568627450980005, 0.8196078431372548767, 0.9333333333333333481 ) ;
#309 = ORIENTED_EDGE ( 'NONE', *, *, #39, .F. ) ;
#310 = ADVANCED_FACE ( 'NONE', ( #245 ), #25, .F. ) ;
#311 = EDGE_LOOP ( 'NONE', ( #67, #304, #234, #120 ) ) ;
#312 = CARTESIAN_POINT ( 'NONE',  ( -6.017094017094014369, 1.898202538678397557E-15, -15.50000000000000178 ) ) ;
#313 = DIRECTION ( 'NONE',  ( -1.000000000000000000, -0.0000000000000000000, -0.0000000000000000000 ) ) ;
#314 = CIRCLE ( 'NONE', #299, 15.50000000000001243 ) ;
ENDSEC;
END-ISO-10303-21;
