ISO-10303-21;
HEADER;
FILE_DESCRIPTION (( 'STEP AP214' ),
    '1' );
FILE_NAME ('BRM 60x9.step',
    '2020-09-08T10:24:08',
    ( '' ),
    ( '' ),
    'SwSTEP 2.0',
    'SolidWorks 2020',
    '' );
FILE_SCHEMA (( 'AUTOMOTIVE_DESIGN' ));
ENDSEC;

DATA;
#1 = ORIENTED_EDGE ( 'NONE', *, *, #277, .T. ) ;
#2 = CIRCLE ( 'NONE', #289, 30.49999999999997513 ) ;
#3 = PRESENTATION_STYLE_ASSIGNMENT (( #109 ) ) ;
#4 = EDGE_CURVE ( 'NONE', #246, #298, #296, .T. ) ;
#5 = PRODUCT_CONTEXT ( 'NONE', #168, 'mechanical' ) ;
#6 = EDGE_LOOP ( 'NONE', ( #53, #29 ) ) ;
#7 = CARTESIAN_POINT ( 'NONE',  ( 113.9829059829059759, 6.123233995736766085E-15, -50.00000000000000000 ) ) ;
#8 = DIRECTION ( 'NONE',  ( -1.000000000000000000, -0.0000000000000000000, -0.0000000000000000000 ) ) ;
#9 = CARTESIAN_POINT ( 'NONE',  ( -46.22222222222222143, 0.0000000000000000000, 0.0000000000000000000 ) ) ;
#10 = FACE_OUTER_BOUND ( 'NONE', #261, .T. ) ;
#11 = CARTESIAN_POINT ( 'NONE',  ( 113.9829059829059759, 3.735172737399425174E-15, 30.49999999999998579 ) ) ;
#12 = CARTESIAN_POINT ( 'NONE',  ( -6.017094017094014369, 0.0000000000000000000, 0.0000000000000000000 ) ) ;
#13 = DIRECTION ( 'NONE',  ( 0.0000000000000000000, 0.0000000000000000000, -1.000000000000000000 ) ) ;
#14 = CARTESIAN_POINT ( 'NONE',  ( -5.517094017094020586, 0.0000000000000000000, 0.0000000000000000000 ) ) ;
#15 = EDGE_CURVE ( 'NONE', #171, #240, #228, .T. ) ;
#16 = SURFACE_STYLE_FILL_AREA ( #233 ) ;
#17 = CARTESIAN_POINT ( 'NONE',  ( -46.22222222222222143, 0.0000000000000000000, 0.0000000000000000000 ) ) ;
#18 = CIRCLE ( 'NONE', #248, 30.49999999999997513 ) ;
#19 = PRESENTATION_LAYER_ASSIGNMENT (  '', '', ( #70 ) ) ;
#20 = CARTESIAN_POINT ( 'NONE',  ( 113.9829059829059759, 0.0000000000000000000, 0.0000000000000000000 ) ) ;
#21 = EDGE_CURVE ( 'NONE', #298, #263, #18, .T. ) ;
#22 = CARTESIAN_POINT ( 'NONE',  ( -46.22222222222222143, 3.673940397442059178E-15, -30.00000000000000000 ) ) ;
#23 = MECHANICAL_DESIGN_GEOMETRIC_PRESENTATION_REPRESENTATION (  '', ( #26 ), #173 ) ;
#24 = SURFACE_SIDE_STYLE ('',( #145 ) ) ;
#25 = ORIENTED_EDGE ( 'NONE', *, *, #4, .F. ) ;
#26 = STYLED_ITEM ( 'NONE', ( #3 ), #141 ) ;
#27 = AXIS2_PLACEMENT_3D ( 'NONE', #17, #166, #93 ) ;
#28 = ORIENTED_EDGE ( 'NONE', *, *, #232, .T. ) ;
#29 = ORIENTED_EDGE ( 'NONE', *, *, #169, .T. ) ;
#30 = ORIENTED_EDGE ( 'NONE', *, *, #264, .T. ) ;
#31 = VERTEX_POINT ( 'NONE', #185 ) ;
#32 = DIRECTION ( 'NONE',  ( 0.0000000000000000000, 0.0000000000000000000, 1.000000000000000000 ) ) ;
#33 = ORIENTED_EDGE ( 'NONE', *, *, #40, .F. ) ;
#34 = PRODUCT_DEFINITION ( 'UNKNOWN', '', #122, #92 ) ;
#35 = CARTESIAN_POINT ( 'NONE',  ( -6.017094017094014369, 30.00000000000000000, 0.0000000000000000000 ) ) ;
#36 = CARTESIAN_POINT ( 'NONE',  ( -46.22222222222222143, 0.0000000000000000000, 30.00000000000000000 ) ) ;
#37 = PLANE ( 'NONE',  #241 ) ;
#38 = DIRECTION ( 'NONE',  ( -1.000000000000000000, -0.0000000000000000000, -0.0000000000000000000 ) ) ;
#39 = CONICAL_SURFACE ( 'NONE', #267, 30.49999999999998579, 0.7853981633974346233 ) ;
#40 = EDGE_CURVE ( 'NONE', #263, #298, #2, .T. ) ;
#41 = ORIENTED_EDGE ( 'NONE', *, *, #40, .T. ) ;
#42 = CARTESIAN_POINT ( 'NONE',  ( -46.22222222222222143, 0.0000000000000000000, 50.00000000000000000 ) ) ;
#43 = FACE_BOUND ( 'NONE', #243, .T. ) ;
#44 = CARTESIAN_POINT ( 'NONE',  ( -6.017094017094014369, 0.0000000000000000000, 30.49999999999997513 ) ) ;
#45 = CARTESIAN_POINT ( 'NONE',  ( 113.4829059829059759, 0.0000000000000000000, 0.0000000000000000000 ) ) ;
#46 = AXIS2_PLACEMENT_3D ( 'NONE', #199, #161, #82 ) ;
#47 = EDGE_CURVE ( 'NONE', #246, #31, #272, .T. ) ;
#48 = DIRECTION ( 'NONE',  ( -1.000000000000000000, -0.0000000000000000000, -0.0000000000000000000 ) ) ;
#49 = PRODUCT ( 'BRM 60x9', 'BRM 60x9', '', ( #5 ) ) ;
#50 = VECTOR ( 'NONE', #138, 1000.000000000000000 ) ;
#51 = ORIENTED_EDGE ( 'NONE', *, *, #15, .F. ) ;
#52 = ORIENTED_EDGE ( 'NONE', *, *, #232, .F. ) ;
#53 = ORIENTED_EDGE ( 'NONE', *, *, #15, .T. ) ;
#54 = ORIENTED_EDGE ( 'NONE', *, *, #242, .T. ) ;
#55 = ORIENTED_EDGE ( 'NONE', *, *, #67, .F. ) ;
#56 = DIRECTION ( 'NONE',  ( 0.0000000000000000000, 0.0000000000000000000, 1.000000000000000000 ) ) ;
#57 = AXIS2_PLACEMENT_3D ( 'NONE', #239, #48, #258 ) ;
#58 = CARTESIAN_POINT ( 'NONE',  ( 113.4829059829059759, 0.0000000000000000000, 30.00000000000000000 ) ) ;
#59 = DIRECTION ( 'NONE',  ( 0.0000000000000000000, 0.0000000000000000000, -1.000000000000000000 ) ) ;
#60 = DIRECTION ( 'NONE',  ( 1.000000000000000000, 0.0000000000000000000, 0.0000000000000000000 ) ) ;
#61 = CARTESIAN_POINT ( 'NONE',  ( 113.9829059829059759, 0.0000000000000000000, 0.0000000000000000000 ) ) ;
#62 = DIRECTION ( 'NONE',  ( 1.000000000000000000, 0.0000000000000000000, 0.0000000000000000000 ) ) ;
#63 = CARTESIAN_POINT ( 'NONE',  ( -6.017094017094014369, 6.123233995736766085E-15, -50.00000000000000000 ) ) ;
#64 = CARTESIAN_POINT ( 'NONE',  ( 113.9829059829059759, 0.0000000000000000000, 0.0000000000000000000 ) ) ;
#65 = DIRECTION ( 'NONE',  ( -1.000000000000000000, -0.0000000000000000000, -0.0000000000000000000 ) ) ;
#66 = DIRECTION ( 'NONE',  ( 0.0000000000000000000, 0.0000000000000000000, 1.000000000000000000 ) ) ;
#67 = EDGE_CURVE ( 'NONE', #131, #212, #91, .T. ) ;
#68 = EDGE_CURVE ( 'NONE', #100, #171, #84, .T. ) ;
#69 = CLOSED_SHELL ( 'NONE', ( #216, #288, #121, #311, #115, #222, #90, #127, #183, #160 ) ) ;
#70 = STYLED_ITEM ( 'NONE', ( #260 ), #283 ) ;
#71 =( NAMED_UNIT ( * ) SI_UNIT ( $, .STERADIAN. ) SOLID_ANGLE_UNIT ( ) );
#72 = ORIENTED_EDGE ( 'NONE', *, *, #74, .T. ) ;
#73 = EDGE_LOOP ( 'NONE', ( #269, #220, #192, #314 ) ) ;
#74 = EDGE_CURVE ( 'NONE', #212, #244, #304, .T. ) ;
#75 = ORIENTED_EDGE ( 'NONE', *, *, #242, .F. ) ;
#76 = EDGE_LOOP ( 'NONE', ( #52, #150, #51, #217 ) ) ;
#77 = CARTESIAN_POINT ( 'NONE',  ( -6.017094017094014369, 0.0000000000000000000, 50.00000000000000000 ) ) ;
#78 = LINE ( 'NONE', #110, #254 ) ;
#79 = AXIS2_PLACEMENT_3D ( 'NONE', #225, #182, #230 ) ;
#80 = ORIENTED_EDGE ( 'NONE', *, *, #47, .T. ) ;
#81 = SURFACE_SIDE_STYLE ('',( #16 ) ) ;
#82 = DIRECTION ( 'NONE',  ( 0.0000000000000000000, 0.0000000000000000000, -1.000000000000000000 ) ) ;
#83 =( LENGTH_UNIT ( ) NAMED_UNIT ( * ) SI_UNIT ( .MILLI., .METRE. ) );
#84 = LINE ( 'NONE', #224, #144 ) ;
#85 = CARTESIAN_POINT ( 'NONE',  ( -5.517094017094020586, 0.0000000000000000000, 30.00000000000000000 ) ) ;
#86 = EDGE_CURVE ( 'NONE', #174, #240, #78, .T. ) ;
#87 = CARTESIAN_POINT ( 'NONE',  ( -46.22222222222222143, 0.0000000000000000000, 0.0000000000000000000 ) ) ;
#88 = CONICAL_SURFACE ( 'NONE', #128, 30.00000000000000000, 0.7853981633974309595 ) ;
#89 = DIRECTION ( 'NONE',  ( 0.0000000000000000000, 0.0000000000000000000, 1.000000000000000000 ) ) ;
#90 = ADVANCED_FACE ( 'NONE', ( #179, #276 ), #252, .F. ) ;
#91 = CIRCLE ( 'NONE', #305, 50.00000000000000000 ) ;
#92 = PRODUCT_DEFINITION_CONTEXT ( 'detailed design', #234, 'design' ) ;
#93 = DIRECTION ( 'NONE',  ( 0.0000000000000000000, 0.0000000000000000000, 1.000000000000000000 ) ) ;
#94 =( NAMED_UNIT ( * ) PLANE_ANGLE_UNIT ( ) SI_UNIT ( $, .RADIAN. ) );
#95 = AXIS2_PLACEMENT_3D ( 'NONE', #64, #175, #56 ) ;
#96 = VECTOR ( 'NONE', #65, 1000.000000000000000 ) ;
#97 = ORIENTED_EDGE ( 'NONE', *, *, #103, .T. ) ;
#98 =( LENGTH_UNIT ( ) NAMED_UNIT ( * ) SI_UNIT ( .MILLI., .METRE. ) );
#99 = ORIENTED_EDGE ( 'NONE', *, *, #209, .F. ) ;
#100 = VERTEX_POINT ( 'NONE', #177 ) ;
#101 = CIRCLE ( 'NONE', #147, 30.00000000000000000 ) ;
#102 = EDGE_LOOP ( 'NONE', ( #130, #72, #149, #105 ) ) ;
#103 = EDGE_CURVE ( 'NONE', #244, #172, #167, .T. ) ;
#104 = DIRECTION ( 'NONE',  ( -1.000000000000000000, 0.0000000000000000000, -0.0000000000000000000 ) ) ;
#105 = ORIENTED_EDGE ( 'NONE', *, *, #165, .F. ) ;
#106 = DIRECTION ( 'NONE',  ( 0.0000000000000000000, 0.0000000000000000000, 1.000000000000000000 ) ) ;
#107 = VECTOR ( 'NONE', #135, 1000.000000000000000 ) ;
#108 = ORIENTED_EDGE ( 'NONE', *, *, #284, .T. ) ;
#109 = SURFACE_STYLE_USAGE ( .BOTH. , #81 ) ;
#110 = CARTESIAN_POINT ( 'NONE',  ( 113.9829059829059759, 3.735172737399425174E-15, 30.49999999999998579 ) ) ;
#111 = CYLINDRICAL_SURFACE ( 'NONE', #188, 50.00000000000000000 ) ;
#112 = CYLINDRICAL_SURFACE ( 'NONE', #308, 30.00000000000000000 ) ;
#113 = UNCERTAINTY_MEASURE_WITH_UNIT (LENGTH_MEASURE( 1.000000000000000082E-05 ), #114, 'distance_accuracy_value', 'NONE');
#114 =( LENGTH_UNIT ( ) NAMED_UNIT ( * ) SI_UNIT ( .MILLI., .METRE. ) );
#115 = ADVANCED_FACE ( 'NONE', ( #43, #231 ), #37, .F. ) ;
#116 = UNCERTAINTY_MEASURE_WITH_UNIT (LENGTH_MEASURE( 1.000000000000000082E-05 ), #98, 'distance_accuracy_value', 'NONE');
#117 = FACE_OUTER_BOUND ( 'NONE', #102, .T. ) ;
#118 = AXIS2_PLACEMENT_3D ( 'NONE', #129, #154, #245 ) ;
#119 = EDGE_LOOP ( 'NONE', ( #55, #215 ) ) ;
#120 = CONICAL_SURFACE ( 'NONE', #79, 30.49999999999998579, 0.7853981633974346233 ) ;
#121 = ADVANCED_FACE ( 'NONE', ( #139 ), #112, .F. ) ;
#122 = PRODUCT_DEFINITION_FORMATION_WITH_SPECIFIED_SOURCE ( 'ANY', '', #49, .NOT_KNOWN. ) ;
#123 = ORIENTED_EDGE ( 'NONE', *, *, #165, .T. ) ;
#124 = ORIENTED_EDGE ( 'NONE', *, *, #209, .T. ) ;
#125 = APPLICATION_PROTOCOL_DEFINITION ( 'draft international standard', 'automotive_design', 1998, #234 ) ;
#126 = ORIENTED_EDGE ( 'NONE', *, *, #4, .T. ) ;
#127 = ADVANCED_FACE ( 'NONE', ( #10 ), #181, .F. ) ;
#128 = AXIS2_PLACEMENT_3D ( 'NONE', #253, #247, #32 ) ;
#129 = CARTESIAN_POINT ( 'NONE',  ( 0.0000000000000000000, 0.0000000000000000000, 0.0000000000000000000 ) ) ;
#130 = ORIENTED_EDGE ( 'NONE', *, *, #67, .T. ) ;
#131 = VERTEX_POINT ( 'NONE', #307 ) ;
#132 = FACE_OUTER_BOUND ( 'NONE', #301, .T. ) ;
#133 = CARTESIAN_POINT ( 'NONE',  ( -46.22222222222222143, 0.0000000000000000000, 0.0000000000000000000 ) ) ;
#134 = DIRECTION ( 'NONE',  ( 0.0000000000000000000, 0.0000000000000000000, 1.000000000000000000 ) ) ;
#135 = DIRECTION ( 'NONE',  ( -0.7071067811865597852, 0.0000000000000000000, 0.7071067811865352493 ) ) ;
#136 = FACE_OUTER_BOUND ( 'NONE', #73, .T. ) ;
#137 = ORIENTED_EDGE ( 'NONE', *, *, #284, .F. ) ;
#138 = DIRECTION ( 'NONE',  ( -0.7071067811865597852, 8.659560562354782482E-17, -0.7071067811865352493 ) ) ;
#139 = FACE_OUTER_BOUND ( 'NONE', #265, .T. ) ;
#140 = CARTESIAN_POINT ( 'NONE',  ( -5.517094017094020586, 0.0000000000000000000, 0.0000000000000000000 ) ) ;
#141 = MANIFOLD_SOLID_BREP ( 'Chamfer1', #69 ) ;
#142 = DIRECTION ( 'NONE',  ( -1.000000000000000000, 0.0000000000000000000, 0.0000000000000000000 ) ) ;
#143 = COLOUR_RGB ( '',0.7921568627450980005, 0.8196078431372548767, 0.9333333333333333481 ) ;
#144 = VECTOR ( 'NONE', #201, 1000.000000000000000 ) ;
#145 = SURFACE_STYLE_FILL_AREA ( #262 ) ;
#146 = ORIENTED_EDGE ( 'NONE', *, *, #292, .T. ) ;
#147 = AXIS2_PLACEMENT_3D ( 'NONE', #299, #178, #134 ) ;
#148 =( NAMED_UNIT ( * ) PLANE_ANGLE_UNIT ( ) SI_UNIT ( $, .RADIAN. ) );
#149 = ORIENTED_EDGE ( 'NONE', *, *, #264, .F. ) ;
#150 = ORIENTED_EDGE ( 'NONE', *, *, #86, .T. ) ;
#151 =( NAMED_UNIT ( * ) SI_UNIT ( $, .STERADIAN. ) SOLID_ANGLE_UNIT ( ) );
#152 = AXIS2_PLACEMENT_3D ( 'NONE', #302, #278, #251 ) ;
#153 = AXIS2_PLACEMENT_3D ( 'NONE', #14, #282, #206 ) ;
#154 = DIRECTION ( 'NONE',  ( 0.0000000000000000000, 0.0000000000000000000, 1.000000000000000000 ) ) ;
#155 = DIRECTION ( 'NONE',  ( 0.0000000000000000000, 0.0000000000000000000, 1.000000000000000000 ) ) ;
#156 = DIRECTION ( 'NONE',  ( -1.000000000000000000, -0.0000000000000000000, -0.0000000000000000000 ) ) ;
#157 = CARTESIAN_POINT ( 'NONE',  ( -6.017094017094014369, 0.0000000000000000000, 0.0000000000000000000 ) ) ;
#158 = DIRECTION ( 'NONE',  ( -1.000000000000000000, -0.0000000000000000000, -0.0000000000000000000 ) ) ;
#159 = DIRECTION ( 'NONE',  ( 0.7071067811865573427, 8.659560562354814529E-17, 0.7071067811865378028 ) ) ;
#160 = ADVANCED_FACE ( 'NONE', ( #136 ), #120, .F. ) ;
#161 = DIRECTION ( 'NONE',  ( -1.000000000000000000, 0.0000000000000000000, 0.0000000000000000000 ) ) ;
#162 = DIRECTION ( 'NONE',  ( -1.000000000000000000, -0.0000000000000000000, -0.0000000000000000000 ) ) ;
#163 = LINE ( 'NONE', #22, #96 ) ;
#164 = VECTOR ( 'NONE', #198, 1000.000000000000000 ) ;
#165 = EDGE_CURVE ( 'NONE', #131, #172, #271, .T. ) ;
#166 = DIRECTION ( 'NONE',  ( -1.000000000000000000, -0.0000000000000000000, -0.0000000000000000000 ) ) ;
#167 = CIRCLE ( 'NONE', #152, 50.00000000000000000 ) ;
#168 = APPLICATION_CONTEXT ( 'automotive_design' ) ;
#169 = EDGE_CURVE ( 'NONE', #240, #171, #235, .T. ) ;
#170 = ORIENTED_EDGE ( 'NONE', *, *, #74, .F. ) ;
#171 = VERTEX_POINT ( 'NONE', #275 ) ;
#172 = VERTEX_POINT ( 'NONE', #77 ) ;
#173 =( GEOMETRIC_REPRESENTATION_CONTEXT ( 3 ) GLOBAL_UNCERTAINTY_ASSIGNED_CONTEXT ( ( #210 ) ) GLOBAL_UNIT_ASSIGNED_CONTEXT ( ( #83, #180, #151 ) ) REPRESENTATION_CONTEXT ( 'NONE', 'WORKASPACE' ) );
#174 = VERTEX_POINT ( 'NONE', #58 ) ;
#175 = DIRECTION ( 'NONE',  ( -1.000000000000000000, -0.0000000000000000000, -0.0000000000000000000 ) ) ;
#176 = DIRECTION ( 'NONE',  ( 0.0000000000000000000, 0.0000000000000000000, -1.000000000000000000 ) ) ;
#177 = CARTESIAN_POINT ( 'NONE',  ( 113.4829059829059759, 3.673940397442059178E-15, -30.00000000000000000 ) ) ;
#178 = DIRECTION ( 'NONE',  ( 1.000000000000000000, -0.0000000000000000000, -0.0000000000000000000 ) ) ;
#179 = FACE_BOUND ( 'NONE', #6, .T. ) ;
#180 =( NAMED_UNIT ( * ) PLANE_ANGLE_UNIT ( ) SI_UNIT ( $, .RADIAN. ) );
#181 = CYLINDRICAL_SURFACE ( 'NONE', #193, 30.00000000000000000 ) ;
#182 = DIRECTION ( 'NONE',  ( 1.000000000000000000, -0.0000000000000000000, -0.0000000000000000000 ) ) ;
#183 = ADVANCED_FACE ( 'NONE', ( #227 ), #88, .F. ) ;
#184 = VECTOR ( 'NONE', #38, 1000.000000000000000 ) ;
#185 = CARTESIAN_POINT ( 'NONE',  ( -5.517094017094020586, 3.673940397442059178E-15, -30.00000000000000000 ) ) ;
#186 = AXIS2_PLACEMENT_3D ( 'NONE', #20, #162, #257 ) ;
#187 = CIRCLE ( 'NONE', #186, 50.00000000000000000 ) ;
#188 = AXIS2_PLACEMENT_3D ( 'NONE', #9, #200, #303 ) ;
#189 = APPLICATION_PROTOCOL_DEFINITION ( 'draft international standard', 'automotive_design', 1998, #168 ) ;
#190 = ORIENTED_EDGE ( 'NONE', *, *, #47, .F. ) ;
#191 = EDGE_LOOP ( 'NONE', ( #30, #97 ) ) ;
#192 = ORIENTED_EDGE ( 'NONE', *, *, #68, .T. ) ;
#193 = AXIS2_PLACEMENT_3D ( 'NONE', #87, #204, #89 ) ;
#194 = ORIENTED_EDGE ( 'NONE', *, *, #306, .T. ) ;
#195 = LINE ( 'NONE', #203, #50 ) ;
#196 = SHAPE_DEFINITION_REPRESENTATION ( #208, #283 ) ;
#197 = DIRECTION ( 'NONE',  ( -1.000000000000000000, -0.0000000000000000000, -0.0000000000000000000 ) ) ;
#198 = DIRECTION ( 'NONE',  ( -1.000000000000000000, -0.0000000000000000000, -0.0000000000000000000 ) ) ;
#199 = CARTESIAN_POINT ( 'NONE',  ( -5.517094017094020586, 0.0000000000000000000, 0.0000000000000000000 ) ) ;
#200 = DIRECTION ( 'NONE',  ( -1.000000000000000000, -0.0000000000000000000, -0.0000000000000000000 ) ) ;
#201 = DIRECTION ( 'NONE',  ( 0.7071067811865573427, 0.0000000000000000000, -0.7071067811865378028 ) ) ;
#202 = DIRECTION ( 'NONE',  ( 1.000000000000000000, 0.0000000000000000000, 0.0000000000000000000 ) ) ;
#203 = CARTESIAN_POINT ( 'NONE',  ( -5.517094017094020586, 3.673940397442059178E-15, -30.00000000000000000 ) ) ;
#204 = DIRECTION ( 'NONE',  ( -1.000000000000000000, -0.0000000000000000000, -0.0000000000000000000 ) ) ;
#205 = FILL_AREA_STYLE_COLOUR ( '', #259 ) ;
#206 = DIRECTION ( 'NONE',  ( 0.0000000000000000000, 0.0000000000000000000, -1.000000000000000000 ) ) ;
#207 = DIRECTION ( 'NONE',  ( 0.0000000000000000000, 0.0000000000000000000, 1.000000000000000000 ) ) ;
#208 = PRODUCT_DEFINITION_SHAPE ( 'NONE', 'NONE',  #34 ) ;
#209 = EDGE_CURVE ( 'NONE', #174, #246, #221, .T. ) ;
#210 = UNCERTAINTY_MEASURE_WITH_UNIT (LENGTH_MEASURE( 1.000000000000000082E-05 ), #83, 'distance_accuracy_value', 'NONE');
#211 =( GEOMETRIC_REPRESENTATION_CONTEXT ( 3 ) GLOBAL_UNCERTAINTY_ASSIGNED_CONTEXT ( ( #116 ) ) GLOBAL_UNIT_ASSIGNED_CONTEXT ( ( #98, #148, #223 ) ) REPRESENTATION_CONTEXT ( 'NONE', 'WORKASPACE' ) );
#212 = VERTEX_POINT ( 'NONE', #7 ) ;
#213 = AXIS2_PLACEMENT_3D ( 'NONE', #256, #104, #270 ) ;
#214 = FILL_AREA_STYLE_COLOUR ( '', #143 ) ;
#215 = ORIENTED_EDGE ( 'NONE', *, *, #292, .F. ) ;
#216 = ADVANCED_FACE ( 'NONE', ( #279 ), #39, .F. ) ;
#217 = ORIENTED_EDGE ( 'NONE', *, *, #68, .F. ) ;
#218 = ORIENTED_EDGE ( 'NONE', *, *, #277, .F. ) ;
#219 = CIRCLE ( 'NONE', #295, 30.00000000000000000 ) ;
#220 = ORIENTED_EDGE ( 'NONE', *, *, #306, .F. ) ;
#221 = LINE ( 'NONE', #36, #164 ) ;
#222 = ADVANCED_FACE ( 'NONE', ( #132 ), #111, .T. ) ;
#223 =( NAMED_UNIT ( * ) SI_UNIT ( $, .STERADIAN. ) SOLID_ANGLE_UNIT ( ) );
#224 = CARTESIAN_POINT ( 'NONE',  ( 113.9829059829059759, 0.0000000000000000000, -30.49999999999998579 ) ) ;
#225 = CARTESIAN_POINT ( 'NONE',  ( 113.9829059829059759, 0.0000000000000000000, 0.0000000000000000000 ) ) ;
#226 = DIRECTION ( 'NONE',  ( 0.0000000000000000000, 0.0000000000000000000, 1.000000000000000000 ) ) ;
#227 = FACE_OUTER_BOUND ( 'NONE', #291, .T. ) ;
#228 = CIRCLE ( 'NONE', #95, 30.49999999999998579 ) ;
#229 = CARTESIAN_POINT ( 'NONE',  ( -5.517094017094020586, 0.0000000000000000000, 30.00000000000000000 ) ) ;
#230 = DIRECTION ( 'NONE',  ( 0.0000000000000000000, 0.0000000000000000000, -1.000000000000000000 ) ) ;
#231 = FACE_OUTER_BOUND ( 'NONE', #191, .T. ) ;
#232 = EDGE_CURVE ( 'NONE', #174, #100, #101, .T. ) ;
#233 = FILL_AREA_STYLE ('',( #205 ) ) ;
#234 = APPLICATION_CONTEXT ( 'automotive_design' ) ;
#235 = CIRCLE ( 'NONE', #300, 30.49999999999998579 ) ;
#236 = CIRCLE ( 'NONE', #153, 30.00000000000000000 ) ;
#237 = DIRECTION ( 'NONE',  ( 1.000000000000000000, -0.0000000000000000000, -0.0000000000000000000 ) ) ;
#238 = PRODUCT_RELATED_PRODUCT_CATEGORY ( 'part', '', ( #49 ) ) ;
#239 = CARTESIAN_POINT ( 'NONE',  ( -6.017094017094014369, 0.0000000000000000000, 0.0000000000000000000 ) ) ;
#240 = VERTEX_POINT ( 'NONE', #11 ) ;
#241 = AXIS2_PLACEMENT_3D ( 'NONE', #35, #202, #255 ) ;
#242 = EDGE_CURVE ( 'NONE', #31, #263, #195, .T. ) ;
#243 = EDGE_LOOP ( 'NONE', ( #268, #41 ) ) ;
#244 = VERTEX_POINT ( 'NONE', #63 ) ;
#245 = DIRECTION ( 'NONE',  ( 1.000000000000000000, 0.0000000000000000000, 0.0000000000000000000 ) ) ;
#246 = VERTEX_POINT ( 'NONE', #85 ) ;
#247 = DIRECTION ( 'NONE',  ( -1.000000000000000000, 0.0000000000000000000, 0.0000000000000000000 ) ) ;
#248 = AXIS2_PLACEMENT_3D ( 'NONE', #157, #60, #13 ) ;
#249 = CARTESIAN_POINT ( 'NONE',  ( 113.9829059829059759, 0.0000000000000000000, 0.0000000000000000000 ) ) ;
#250 = CARTESIAN_POINT ( 'NONE',  ( 113.9829059829059759, 0.0000000000000000000, 0.0000000000000000000 ) ) ;
#251 = DIRECTION ( 'NONE',  ( 0.0000000000000000000, 0.0000000000000000000, 1.000000000000000000 ) ) ;
#252 = PLANE ( 'NONE',  #213 ) ;
#253 = CARTESIAN_POINT ( 'NONE',  ( -5.517094017094020586, 0.0000000000000000000, 0.0000000000000000000 ) ) ;
#254 = VECTOR ( 'NONE', #159, 1000.000000000000000 ) ;
#255 = DIRECTION ( 'NONE',  ( 0.0000000000000000000, 0.0000000000000000000, -1.000000000000000000 ) ) ;
#256 = CARTESIAN_POINT ( 'NONE',  ( 113.9829059829059759, 50.00000000000000000, 0.0000000000000000000 ) ) ;
#257 = DIRECTION ( 'NONE',  ( 0.0000000000000000000, 0.0000000000000000000, 1.000000000000000000 ) ) ;
#258 = DIRECTION ( 'NONE',  ( 0.0000000000000000000, 0.0000000000000000000, 1.000000000000000000 ) ) ;
#259 = COLOUR_RGB ( '',0.7921568627450980005, 0.8196078431372548767, 0.9333333333333333481 ) ;
#260 = PRESENTATION_STYLE_ASSIGNMENT (( #312 ) ) ;
#261 = EDGE_LOOP ( 'NONE', ( #137, #194, #124, #80 ) ) ;
#262 = FILL_AREA_STYLE ('',( #214 ) ) ;
#263 = VERTEX_POINT ( 'NONE', #287 ) ;
#264 = EDGE_CURVE ( 'NONE', #172, #244, #309, .T. ) ;
#265 = EDGE_LOOP ( 'NONE', ( #28, #108, #1, #99 ) ) ;
#266 = VECTOR ( 'NONE', #156, 1000.000000000000000 ) ;
#267 = AXIS2_PLACEMENT_3D ( 'NONE', #250, #297, #176 ) ;
#268 = ORIENTED_EDGE ( 'NONE', *, *, #21, .T. ) ;
#269 = ORIENTED_EDGE ( 'NONE', *, *, #86, .F. ) ;
#270 = DIRECTION ( 'NONE',  ( -0.0000000000000000000, 0.0000000000000000000, 1.000000000000000000 ) ) ;
#271 = LINE ( 'NONE', #42, #184 ) ;
#272 = CIRCLE ( 'NONE', #46, 30.00000000000000000 ) ;
#273 = AXIS2_PLACEMENT_3D ( 'NONE', #140, #142, #66 ) ;
#274 = CARTESIAN_POINT ( 'NONE',  ( -46.22222222222222143, 6.123233995736766085E-15, -50.00000000000000000 ) ) ;
#275 = CARTESIAN_POINT ( 'NONE',  ( 113.9829059829059759, 0.0000000000000000000, -30.49999999999998579 ) ) ;
#276 = FACE_OUTER_BOUND ( 'NONE', #119, .T. ) ;
#277 = EDGE_CURVE ( 'NONE', #31, #246, #236, .T. ) ;
#278 = DIRECTION ( 'NONE',  ( -1.000000000000000000, -0.0000000000000000000, -0.0000000000000000000 ) ) ;
#279 = FACE_OUTER_BOUND ( 'NONE', #76, .T. ) ;
#280 = CONICAL_SURFACE ( 'NONE', #273, 30.00000000000000000, 0.7853981633974309595 ) ;
#281 = ORIENTED_EDGE ( 'NONE', *, *, #21, .F. ) ;
#282 = DIRECTION ( 'NONE',  ( -1.000000000000000000, 0.0000000000000000000, 0.0000000000000000000 ) ) ;
#283 = ADVANCED_BREP_SHAPE_REPRESENTATION ( 'BRM 60x9', ( #141, #118 ), #290 ) ;
#284 = EDGE_CURVE ( 'NONE', #100, #31, #163, .T. ) ;
#285 = FACE_OUTER_BOUND ( 'NONE', #294, .T. ) ;
#286 = PRESENTATION_LAYER_ASSIGNMENT (  '', '', ( #26 ) ) ;
#287 = CARTESIAN_POINT ( 'NONE',  ( -6.017094017094014369, 3.735172737399423596E-15, -30.49999999999997513 ) ) ;
#288 = ADVANCED_FACE ( 'NONE', ( #285 ), #280, .F. ) ;
#289 = AXIS2_PLACEMENT_3D ( 'NONE', #12, #62, #59 ) ;
#290 =( GEOMETRIC_REPRESENTATION_CONTEXT ( 3 ) GLOBAL_UNCERTAINTY_ASSIGNED_CONTEXT ( ( #113 ) ) GLOBAL_UNIT_ASSIGNED_CONTEXT ( ( #114, #94, #71 ) ) REPRESENTATION_CONTEXT ( 'NONE', 'WORKASPACE' ) );
#291 = EDGE_LOOP ( 'NONE', ( #75, #190, #126, #33 ) ) ;
#292 = EDGE_CURVE ( 'NONE', #212, #131, #187, .T. ) ;
#293 = ORIENTED_EDGE ( 'NONE', *, *, #103, .F. ) ;
#294 = EDGE_LOOP ( 'NONE', ( #218, #54, #281, #25 ) ) ;
#295 = AXIS2_PLACEMENT_3D ( 'NONE', #45, #237, #207 ) ;
#296 = LINE ( 'NONE', #229, #107 ) ;
#297 = DIRECTION ( 'NONE',  ( 1.000000000000000000, -0.0000000000000000000, -0.0000000000000000000 ) ) ;
#298 = VERTEX_POINT ( 'NONE', #44 ) ;
#299 = CARTESIAN_POINT ( 'NONE',  ( 113.4829059829059759, 0.0000000000000000000, 0.0000000000000000000 ) ) ;
#300 = AXIS2_PLACEMENT_3D ( 'NONE', #61, #158, #106 ) ;
#301 = EDGE_LOOP ( 'NONE', ( #170, #146, #123, #293 ) ) ;
#302 = CARTESIAN_POINT ( 'NONE',  ( -6.017094017094014369, 0.0000000000000000000, 0.0000000000000000000 ) ) ;
#303 = DIRECTION ( 'NONE',  ( 0.0000000000000000000, 0.0000000000000000000, 1.000000000000000000 ) ) ;
#304 = LINE ( 'NONE', #274, #266 ) ;
#305 = AXIS2_PLACEMENT_3D ( 'NONE', #249, #8, #155 ) ;
#306 = EDGE_CURVE ( 'NONE', #100, #174, #219, .T. ) ;
#307 = CARTESIAN_POINT ( 'NONE',  ( 113.9829059829059759, 0.0000000000000000000, 50.00000000000000000 ) ) ;
#308 = AXIS2_PLACEMENT_3D ( 'NONE', #133, #197, #226 ) ;
#309 = CIRCLE ( 'NONE', #57, 50.00000000000000000 ) ;
#310 = CYLINDRICAL_SURFACE ( 'NONE', #27, 50.00000000000000000 ) ;
#311 = ADVANCED_FACE ( 'NONE', ( #117 ), #310, .T. ) ;
#312 = SURFACE_STYLE_USAGE ( .BOTH. , #24 ) ;
#313 = MECHANICAL_DESIGN_GEOMETRIC_PRESENTATION_REPRESENTATION (  '', ( #70 ), #211 ) ;
#314 = ORIENTED_EDGE ( 'NONE', *, *, #169, .F. ) ;
ENDSEC;
END-ISO-10303-21;
