ISO-10303-21;
HEADER;
FILE_DESCRIPTION (( 'STEP AP214' ),
    '1' );
FILE_NAME ('BRM 50x8.step',
    '2020-09-08T10:24:04',
    ( '' ),
    ( '' ),
    'SwSTEP 2.0',
    'SolidWorks 2020',
    '' );
FILE_SCHEMA (( 'AUTOMOTIVE_DESIGN' ));
ENDSEC;

DATA;
#1 = AXIS2_PLACEMENT_3D ( 'NONE', #202, #113, #106 ) ;
#2 = DIRECTION ( 'NONE',  ( 0.0000000000000000000, 0.0000000000000000000, 1.000000000000000000 ) ) ;
#3 = MANIFOLD_SOLID_BREP ( 'Chamfer1', #272 ) ;
#4 = CARTESIAN_POINT ( 'NONE',  ( 93.98290598290599007, 0.0000000000000000000, 45.00000000000000000 ) ) ;
#5 = LINE ( 'NONE', #279, #234 ) ;
#6 = DIRECTION ( 'NONE',  ( -1.000000000000000000, -0.0000000000000000000, -0.0000000000000000000 ) ) ;
#7 = AXIS2_PLACEMENT_3D ( 'NONE', #296, #37, #180 ) ;
#8 = UNCERTAINTY_MEASURE_WITH_UNIT (LENGTH_MEASURE( 1.000000000000000082E-05 ), #249, 'distance_accuracy_value', 'NONE');
#9 = CARTESIAN_POINT ( 'NONE',  ( -5.517094017093993052, 0.0000000000000000000, 25.00000000000000000 ) ) ;
#10 = CARTESIAN_POINT ( 'NONE',  ( 93.98290598290599007, 0.0000000000000000000, 0.0000000000000000000 ) ) ;
#11 = PRODUCT_DEFINITION_SHAPE ( 'NONE', 'NONE',  #141 ) ;
#12 = FACE_OUTER_BOUND ( 'NONE', #240, .T. ) ;
#13 = CONICAL_SURFACE ( 'NONE', #50, 25.00000000000000000, 0.7853981633974621568 ) ;
#14 = CARTESIAN_POINT ( 'NONE',  ( -6.017094017094014369, 0.0000000000000000000, 25.50000000000003553 ) ) ;
#15 = DIRECTION ( 'NONE',  ( 0.0000000000000000000, 0.0000000000000000000, -1.000000000000000000 ) ) ;
#16 = ORIENTED_EDGE ( 'NONE', *, *, #270, .F. ) ;
#17 = ORIENTED_EDGE ( 'NONE', *, *, #226, .F. ) ;
#18 =( NAMED_UNIT ( * ) SI_UNIT ( $, .STERADIAN. ) SOLID_ANGLE_UNIT ( ) );
#19 = AXIS2_PLACEMENT_3D ( 'NONE', #153, #199, #129 ) ;
#20 = APPLICATION_CONTEXT ( 'automotive_design' ) ;
#21 = ORIENTED_EDGE ( 'NONE', *, *, #276, .T. ) ;
#22 = ADVANCED_BREP_SHAPE_REPRESENTATION ( 'BRM 50x8', ( #3, #47 ), #218 ) ;
#23 = ORIENTED_EDGE ( 'NONE', *, *, #72, .T. ) ;
#24 = ORIENTED_EDGE ( 'NONE', *, *, #309, .F. ) ;
#25 = CIRCLE ( 'NONE', #128, 25.00000000000000000 ) ;
#26 = SURFACE_STYLE_USAGE ( .BOTH. , #79 ) ;
#27 = CARTESIAN_POINT ( 'NONE',  ( 93.98290598290599007, 0.0000000000000000000, -25.50000000000000000 ) ) ;
#28 = CARTESIAN_POINT ( 'NONE',  ( -6.017094017094014369, 0.0000000000000000000, 0.0000000000000000000 ) ) ;
#29 = EDGE_CURVE ( 'NONE', #216, #280, #300, .T. ) ;
#30 = FILL_AREA_STYLE_COLOUR ( '', #139 ) ;
#31 = APPLICATION_CONTEXT ( 'automotive_design' ) ;
#32 = UNCERTAINTY_MEASURE_WITH_UNIT (LENGTH_MEASURE( 1.000000000000000082E-05 ), #43, 'distance_accuracy_value', 'NONE');
#33 = FACE_OUTER_BOUND ( 'NONE', #121, .T. ) ;
#34 = DIRECTION ( 'NONE',  ( -1.000000000000000000, -0.0000000000000000000, -0.0000000000000000000 ) ) ;
#35 = CIRCLE ( 'NONE', #59, 25.50000000000000000 ) ;
#36 = CARTESIAN_POINT ( 'NONE',  ( -6.017094017094014369, 0.0000000000000000000, 0.0000000000000000000 ) ) ;
#37 = DIRECTION ( 'NONE',  ( -1.000000000000000000, -0.0000000000000000000, -0.0000000000000000000 ) ) ;
#38 = PRESENTATION_STYLE_ASSIGNMENT (( #303 ) ) ;
#39 = DIRECTION ( 'NONE',  ( 0.0000000000000000000, 0.0000000000000000000, 1.000000000000000000 ) ) ;
#40 = AXIS2_PLACEMENT_3D ( 'NONE', #160, #6, #39 ) ;
#41 = ORIENTED_EDGE ( 'NONE', *, *, #169, .T. ) ;
#42 = ORIENTED_EDGE ( 'NONE', *, *, #48, .T. ) ;
#43 =( LENGTH_UNIT ( ) NAMED_UNIT ( * ) SI_UNIT ( .MILLI., .METRE. ) );
#44 = ORIENTED_EDGE ( 'NONE', *, *, #48, .F. ) ;
#45 = VECTOR ( 'NONE', #34, 1000.000000000000000 ) ;
#46 = ORIENTED_EDGE ( 'NONE', *, *, #287, .F. ) ;
#47 = AXIS2_PLACEMENT_3D ( 'NONE', #145, #115, #84 ) ;
#48 = EDGE_CURVE ( 'NONE', #66, #69, #214, .T. ) ;
#49 = ORIENTED_EDGE ( 'NONE', *, *, #270, .T. ) ;
#50 = AXIS2_PLACEMENT_3D ( 'NONE', #211, #90, #237 ) ;
#51 = LINE ( 'NONE', #27, #201 ) ;
#52 = DIRECTION ( 'NONE',  ( -1.000000000000000000, -0.0000000000000000000, -0.0000000000000000000 ) ) ;
#53 = EDGE_CURVE ( 'NONE', #261, #260, #99, .T. ) ;
#54 = DIRECTION ( 'NONE',  ( 0.7071067811865500152, 0.0000000000000000000, -0.7071067811865451302 ) ) ;
#55 = DIRECTION ( 'NONE',  ( -1.000000000000000000, -0.0000000000000000000, -0.0000000000000000000 ) ) ;
#56 = EDGE_CURVE ( 'NONE', #260, #265, #25, .T. ) ;
#57 = CARTESIAN_POINT ( 'NONE',  ( -5.517094017093993052, 3.061616997868383043E-15, -25.00000000000000000 ) ) ;
#58 = DIRECTION ( 'NONE',  ( -1.000000000000000000, 0.0000000000000000000, -0.0000000000000000000 ) ) ;
#59 = AXIS2_PLACEMENT_3D ( 'NONE', #132, #255, #108 ) ;
#60 = APPLICATION_PROTOCOL_DEFINITION ( 'draft international standard', 'automotive_design', 1998, #31 ) ;
#61 = DIRECTION ( 'NONE',  ( -1.000000000000000000, 0.0000000000000000000, 0.0000000000000000000 ) ) ;
#62 = ADVANCED_FACE ( 'NONE', ( #177 ), #197, .F. ) ;
#63 = DIRECTION ( 'NONE',  ( -0.7071067811865376918, 8.659560562355054885E-17, -0.7071067811865574537 ) ) ;
#64 = EDGE_LOOP ( 'NONE', ( #42, #164 ) ) ;
#65 = AXIS2_PLACEMENT_3D ( 'NONE', #36, #298, #110 ) ;
#66 = VERTEX_POINT ( 'NONE', #127 ) ;
#67 =( NAMED_UNIT ( * ) PLANE_ANGLE_UNIT ( ) SI_UNIT ( $, .RADIAN. ) );
#68 = EDGE_CURVE ( 'NONE', #243, #69, #266, .T. ) ;
#69 = VERTEX_POINT ( 'NONE', #269 ) ;
#70 = VERTEX_POINT ( 'NONE', #4 ) ;
#71 =( GEOMETRIC_REPRESENTATION_CONTEXT ( 3 ) GLOBAL_UNCERTAINTY_ASSIGNED_CONTEXT ( ( #8 ) ) GLOBAL_UNIT_ASSIGNED_CONTEXT ( ( #249, #77, #220 ) ) REPRESENTATION_CONTEXT ( 'NONE', 'WORKASPACE' ) );
#72 = EDGE_CURVE ( 'NONE', #95, #242, #51, .T. ) ;
#73 = ORIENTED_EDGE ( 'NONE', *, *, #226, .T. ) ;
#74 = CARTESIAN_POINT ( 'NONE',  ( -46.22222222222222143, 0.0000000000000000000, 0.0000000000000000000 ) ) ;
#75 = ORIENTED_EDGE ( 'NONE', *, *, #125, .F. ) ;
#76 = PRESENTATION_LAYER_ASSIGNMENT (  '', '', ( #133 ) ) ;
#77 =( NAMED_UNIT ( * ) PLANE_ANGLE_UNIT ( ) SI_UNIT ( $, .RADIAN. ) );
#78 = STYLED_ITEM ( 'NONE', ( #38 ), #22 ) ;
#79 = SURFACE_SIDE_STYLE ('',( #104 ) ) ;
#80 = CIRCLE ( 'NONE', #258, 25.00000000000000000 ) ;
#81 = DIRECTION ( 'NONE',  ( 0.0000000000000000000, 0.0000000000000000000, 1.000000000000000000 ) ) ;
#82 = DIRECTION ( 'NONE',  ( 0.0000000000000000000, 0.0000000000000000000, -1.000000000000000000 ) ) ;
#83 = LINE ( 'NONE', #301, #45 ) ;
#84 = DIRECTION ( 'NONE',  ( 1.000000000000000000, 0.0000000000000000000, 0.0000000000000000000 ) ) ;
#85 = FACE_OUTER_BOUND ( 'NONE', #283, .T. ) ;
#86 = VECTOR ( 'NONE', #143, 999.9999999999998863 ) ;
#87 = AXIS2_PLACEMENT_3D ( 'NONE', #233, #213, #307 ) ;
#88 = CARTESIAN_POINT ( 'NONE',  ( 93.98290598290599007, 45.00000000000000000, 0.0000000000000000000 ) ) ;
#89 = LINE ( 'NONE', #235, #86 ) ;
#90 = DIRECTION ( 'NONE',  ( -1.000000000000000000, 0.0000000000000000000, 0.0000000000000000000 ) ) ;
#91 = ORIENTED_EDGE ( 'NONE', *, *, #259, .F. ) ;
#92 = PLANE ( 'NONE',  #87 ) ;
#93 = VECTOR ( 'NONE', #196, 1000.000000000000000 ) ;
#94 = ORIENTED_EDGE ( 'NONE', *, *, #293, .T. ) ;
#95 = VERTEX_POINT ( 'NONE', #198 ) ;
#96 = EDGE_LOOP ( 'NONE', ( #41, #142, #73, #178 ) ) ;
#97 = VECTOR ( 'NONE', #208, 1000.000000000000114 ) ;
#98 = CONICAL_SURFACE ( 'NONE', #1, 25.50000000000000000, 0.7853981633974447263 ) ;
#99 = LINE ( 'NONE', #225, #93 ) ;
#100 = CARTESIAN_POINT ( 'NONE',  ( -6.017094017094014369, 0.0000000000000000000, 0.0000000000000000000 ) ) ;
#101 = ADVANCED_FACE ( 'NONE', ( #292 ), #176, .T. ) ;
#102 = AXIS2_PLACEMENT_3D ( 'NONE', #100, #52, #126 ) ;
#103 = FACE_OUTER_BOUND ( 'NONE', #174, .T. ) ;
#104 = SURFACE_STYLE_FILL_AREA ( #219 ) ;
#105 = ADVANCED_FACE ( 'NONE', ( #103 ), #207, .F. ) ;
#106 = DIRECTION ( 'NONE',  ( 0.0000000000000000000, 0.0000000000000000000, -1.000000000000000000 ) ) ;
#107 = AXIS2_PLACEMENT_3D ( 'NONE', #157, #138, #82 ) ;
#108 = DIRECTION ( 'NONE',  ( 0.0000000000000000000, 0.0000000000000000000, 1.000000000000000000 ) ) ;
#109 = PRODUCT_DEFINITION_FORMATION_WITH_SPECIFIED_SOURCE ( 'ANY', '', #203, .NOT_KNOWN. ) ;
#110 = DIRECTION ( 'NONE',  ( 0.0000000000000000000, 0.0000000000000000000, 1.000000000000000000 ) ) ;
#111 = CARTESIAN_POINT ( 'NONE',  ( 93.48290598290599007, 0.0000000000000000000, 0.0000000000000000000 ) ) ;
#112 = ADVANCED_FACE ( 'NONE', ( #33 ), #308, .F. ) ;
#113 = DIRECTION ( 'NONE',  ( 1.000000000000000000, -0.0000000000000000000, -0.0000000000000000000 ) ) ;
#114 = CIRCLE ( 'NONE', #65, 45.00000000000000000 ) ;
#115 = DIRECTION ( 'NONE',  ( 0.0000000000000000000, 0.0000000000000000000, 1.000000000000000000 ) ) ;
#116 = DIRECTION ( 'NONE',  ( -1.000000000000000000, -0.0000000000000000000, -0.0000000000000000000 ) ) ;
#117 = FACE_OUTER_BOUND ( 'NONE', #288, .T. ) ;
#118 = ORIENTED_EDGE ( 'NONE', *, *, #241, .T. ) ;
#119 = FACE_BOUND ( 'NONE', #238, .T. ) ;
#120 = ORIENTED_EDGE ( 'NONE', *, *, #147, .T. ) ;
#121 = EDGE_LOOP ( 'NONE', ( #17, #118, #24, #193 ) ) ;
#122 = ORIENTED_EDGE ( 'NONE', *, *, #29, .T. ) ;
#123 = AXIS2_PLACEMENT_3D ( 'NONE', #179, #278, #275 ) ;
#124 = ORIENTED_EDGE ( 'NONE', *, *, #241, .F. ) ;
#125 = EDGE_CURVE ( 'NONE', #95, #265, #230, .T. ) ;
#126 = DIRECTION ( 'NONE',  ( 0.0000000000000000000, 0.0000000000000000000, 1.000000000000000000 ) ) ;
#127 = CARTESIAN_POINT ( 'NONE',  ( -6.017094017094014369, 0.0000000000000000000, 45.00000000000000000 ) ) ;
#128 = AXIS2_PLACEMENT_3D ( 'NONE', #151, #289, #247 ) ;
#129 = DIRECTION ( 'NONE',  ( 0.0000000000000000000, 0.0000000000000000000, -1.000000000000000000 ) ) ;
#130 = EDGE_CURVE ( 'NONE', #69, #66, #114, .T. ) ;
#131 = DIRECTION ( 'NONE',  ( 0.0000000000000000000, 0.0000000000000000000, -1.000000000000000000 ) ) ;
#132 = CARTESIAN_POINT ( 'NONE',  ( 93.98290598290599007, 0.0000000000000000000, 0.0000000000000000000 ) ) ;
#133 = STYLED_ITEM ( 'NONE', ( #268 ), #3 ) ;
#134 = CARTESIAN_POINT ( 'NONE',  ( 93.98290598290599007, 3.122849337825750222E-15, 25.50000000000000000 ) ) ;
#135 = FACE_BOUND ( 'NONE', #154, .T. ) ;
#136 = CARTESIAN_POINT ( 'NONE',  ( 93.98290598290599007, 3.122849337825750222E-15, 25.50000000000000000 ) ) ;
#137 =( LENGTH_UNIT ( ) NAMED_UNIT ( * ) SI_UNIT ( .MILLI., .METRE. ) );
#138 = DIRECTION ( 'NONE',  ( -1.000000000000000000, 0.0000000000000000000, 0.0000000000000000000 ) ) ;
#139 = COLOUR_RGB ( '',0.7921568627450980005, 0.8196078431372548767, 0.9333333333333333481 ) ;
#140 = FACE_OUTER_BOUND ( 'NONE', #64, .T. ) ;
#141 = PRODUCT_DEFINITION ( 'UNKNOWN', '', #109, #204 ) ;
#142 = ORIENTED_EDGE ( 'NONE', *, *, #125, .T. ) ;
#143 = DIRECTION ( 'NONE',  ( -0.7071067811865376918, 0.0000000000000000000, 0.7071067811865574537 ) ) ;
#144 = ORIENTED_EDGE ( 'NONE', *, *, #221, .T. ) ;
#145 = CARTESIAN_POINT ( 'NONE',  ( 0.0000000000000000000, 0.0000000000000000000, 0.0000000000000000000 ) ) ;
#146 = CIRCLE ( 'NONE', #282, 45.00000000000000000 ) ;
#147 = EDGE_CURVE ( 'NONE', #95, #261, #311, .T. ) ;
#148 = VERTEX_POINT ( 'NONE', #134 ) ;
#149 = ORIENTED_EDGE ( 'NONE', *, *, #72, .F. ) ;
#150 = CARTESIAN_POINT ( 'NONE',  ( -46.22222222222222143, 5.510910596163089556E-15, -45.00000000000000000 ) ) ;
#151 = CARTESIAN_POINT ( 'NONE',  ( -5.517094017093993052, 0.0000000000000000000, 0.0000000000000000000 ) ) ;
#152 = DIRECTION ( 'NONE',  ( -1.000000000000000000, -0.0000000000000000000, -0.0000000000000000000 ) ) ;
#153 = CARTESIAN_POINT ( 'NONE',  ( 93.98290598290599007, 0.0000000000000000000, 0.0000000000000000000 ) ) ;
#154 = EDGE_LOOP ( 'NONE', ( #168, #144 ) ) ;
#155 = UNCERTAINTY_MEASURE_WITH_UNIT (LENGTH_MEASURE( 1.000000000000000082E-05 ), #137, 'distance_accuracy_value', 'NONE');
#156 = CARTESIAN_POINT ( 'NONE',  ( -5.517094017093993052, 0.0000000000000000000, 0.0000000000000000000 ) ) ;
#157 = CARTESIAN_POINT ( 'NONE',  ( -5.517094017093993052, 0.0000000000000000000, 0.0000000000000000000 ) ) ;
#158 = CARTESIAN_POINT ( 'NONE',  ( 93.98290598290599007, 0.0000000000000000000, -25.50000000000000000 ) ) ;
#159 = SHAPE_DEFINITION_REPRESENTATION ( #11, #22 ) ;
#160 = CARTESIAN_POINT ( 'NONE',  ( -46.22222222222222143, 0.0000000000000000000, 0.0000000000000000000 ) ) ;
#161 = ADVANCED_FACE ( 'NONE', ( #85 ), #294, .T. ) ;
#162 = DIRECTION ( 'NONE',  ( 1.000000000000000000, -0.0000000000000000000, -0.0000000000000000000 ) ) ;
#163 = DIRECTION ( 'NONE',  ( 1.000000000000000000, 0.0000000000000000000, 0.0000000000000000000 ) ) ;
#164 = ORIENTED_EDGE ( 'NONE', *, *, #130, .T. ) ;
#165 = FILL_AREA_STYLE ('',( #299 ) ) ;
#166 = ORIENTED_EDGE ( 'NONE', *, *, #287, .T. ) ;
#167 =( NAMED_UNIT ( * ) SI_UNIT ( $, .STERADIAN. ) SOLID_ANGLE_UNIT ( ) );
#168 = ORIENTED_EDGE ( 'NONE', *, *, #259, .T. ) ;
#169 = EDGE_CURVE ( 'NONE', #261, #95, #80, .T. ) ;
#170 = ORIENTED_EDGE ( 'NONE', *, *, #68, .T. ) ;
#171 = VECTOR ( 'NONE', #244, 1000.000000000000000 ) ;
#172 = ORIENTED_EDGE ( 'NONE', *, *, #309, .T. ) ;
#173 = DIRECTION ( 'NONE',  ( 0.0000000000000000000, 0.0000000000000000000, 1.000000000000000000 ) ) ;
#174 = EDGE_LOOP ( 'NONE', ( #285, #49, #91, #149 ) ) ;
#175 = AXIS2_PLACEMENT_3D ( 'NONE', #88, #58, #274 ) ;
#176 = CYLINDRICAL_SURFACE ( 'NONE', #262, 45.00000000000000000 ) ;
#177 = FACE_OUTER_BOUND ( 'NONE', #189, .T. ) ;
#178 = ORIENTED_EDGE ( 'NONE', *, *, #53, .F. ) ;
#179 = CARTESIAN_POINT ( 'NONE',  ( -46.22222222222222143, 0.0000000000000000000, 0.0000000000000000000 ) ) ;
#180 = DIRECTION ( 'NONE',  ( 0.0000000000000000000, 0.0000000000000000000, 1.000000000000000000 ) ) ;
#181 = CARTESIAN_POINT ( 'NONE',  ( 93.98290598290599007, 5.510910596163089556E-15, -45.00000000000000000 ) ) ;
#182 = PRODUCT_CONTEXT ( 'NONE', #20, 'mechanical' ) ;
#183 = CIRCLE ( 'NONE', #7, 25.50000000000000000 ) ;
#184 = CARTESIAN_POINT ( 'NONE',  ( -6.017094017094014369, 3.122849337825755350E-15, -25.50000000000003553 ) ) ;
#185 =( NAMED_UNIT ( * ) PLANE_ANGLE_UNIT ( ) SI_UNIT ( $, .RADIAN. ) );
#186 = FACE_OUTER_BOUND ( 'NONE', #96, .T. ) ;
#187 = ORIENTED_EDGE ( 'NONE', *, *, #56, .T. ) ;
#188 = CIRCLE ( 'NONE', #228, 25.50000000000003553 ) ;
#189 = EDGE_LOOP ( 'NONE', ( #75, #120, #224, #187 ) ) ;
#190 = EDGE_LOOP ( 'NONE', ( #192, #166, #21, #212 ) ) ;
#191 = ADVANCED_FACE ( 'NONE', ( #135, #12 ), #205, .F. ) ;
#192 = ORIENTED_EDGE ( 'NONE', *, *, #68, .F. ) ;
#193 = ORIENTED_EDGE ( 'NONE', *, *, #293, .F. ) ;
#194 = AXIS2_PLACEMENT_3D ( 'NONE', #111, #162, #206 ) ;
#195 = ADVANCED_FACE ( 'NONE', ( #186 ), #229, .F. ) ;
#196 = DIRECTION ( 'NONE',  ( -1.000000000000000000, -0.0000000000000000000, -0.0000000000000000000 ) ) ;
#197 = CYLINDRICAL_SURFACE ( 'NONE', #217, 25.00000000000000000 ) ;
#198 = CARTESIAN_POINT ( 'NONE',  ( 93.48290598290599007, 3.061616997868383043E-15, -25.00000000000000000 ) ) ;
#199 = DIRECTION ( 'NONE',  ( 1.000000000000000000, -0.0000000000000000000, -0.0000000000000000000 ) ) ;
#200 = CARTESIAN_POINT ( 'NONE',  ( -46.22222222222222143, 3.061616997868383043E-15, -25.00000000000000000 ) ) ;
#201 = VECTOR ( 'NONE', #54, 1000.000000000000114 ) ;
#202 = CARTESIAN_POINT ( 'NONE',  ( 93.98290598290599007, 0.0000000000000000000, 0.0000000000000000000 ) ) ;
#203 = PRODUCT ( 'BRM 50x8', 'BRM 50x8', '', ( #182 ) ) ;
#204 = PRODUCT_DEFINITION_CONTEXT ( 'detailed design', #31, 'design' ) ;
#205 = PLANE ( 'NONE',  #175 ) ;
#206 = DIRECTION ( 'NONE',  ( 0.0000000000000000000, 0.0000000000000000000, 1.000000000000000000 ) ) ;
#207 = CONICAL_SURFACE ( 'NONE', #19, 25.50000000000000000, 0.7853981633974447263 ) ;
#208 = DIRECTION ( 'NONE',  ( 0.7071067811865500152, 8.659560562354903276E-17, 0.7071067811865451302 ) ) ;
#209 = SURFACE_SIDE_STYLE ('',( #256 ) ) ;
#210 = CARTESIAN_POINT ( 'NONE',  ( 93.98290598290599007, 0.0000000000000000000, 0.0000000000000000000 ) ) ;
#211 = CARTESIAN_POINT ( 'NONE',  ( -5.517094017093993052, 0.0000000000000000000, 0.0000000000000000000 ) ) ;
#212 = ORIENTED_EDGE ( 'NONE', *, *, #130, .F. ) ;
#213 = DIRECTION ( 'NONE',  ( 1.000000000000000000, 0.0000000000000000000, 0.0000000000000000000 ) ) ;
#214 = CIRCLE ( 'NONE', #102, 45.00000000000000000 ) ;
#215 = EDGE_LOOP ( 'NONE', ( #16, #286, #23, #290 ) ) ;
#216 = VERTEX_POINT ( 'NONE', #184 ) ;
#217 = AXIS2_PLACEMENT_3D ( 'NONE', #74, #152, #173 ) ;
#218 =( GEOMETRIC_REPRESENTATION_CONTEXT ( 3 ) GLOBAL_UNCERTAINTY_ASSIGNED_CONTEXT ( ( #155 ) ) GLOBAL_UNIT_ASSIGNED_CONTEXT ( ( #137, #67, #18 ) ) REPRESENTATION_CONTEXT ( 'NONE', 'WORKASPACE' ) );
#219 = FILL_AREA_STYLE ('',( #30 ) ) ;
#220 =( NAMED_UNIT ( * ) SI_UNIT ( $, .STERADIAN. ) SOLID_ANGLE_UNIT ( ) );
#221 = EDGE_CURVE ( 'NONE', #148, #242, #35, .T. ) ;
#222 = DIRECTION ( 'NONE',  ( -1.000000000000000000, -0.0000000000000000000, -0.0000000000000000000 ) ) ;
#223 = AXIS2_PLACEMENT_3D ( 'NONE', #210, #116, #305 ) ;
#224 = ORIENTED_EDGE ( 'NONE', *, *, #53, .T. ) ;
#225 = CARTESIAN_POINT ( 'NONE',  ( -46.22222222222222143, 0.0000000000000000000, 25.00000000000000000 ) ) ;
#226 = EDGE_CURVE ( 'NONE', #265, #260, #239, .T. ) ;
#227 = DIRECTION ( 'NONE',  ( -1.000000000000000000, -0.0000000000000000000, -0.0000000000000000000 ) ) ;
#228 = AXIS2_PLACEMENT_3D ( 'NONE', #284, #163, #15 ) ;
#229 = CYLINDRICAL_SURFACE ( 'NONE', #123, 25.00000000000000000 ) ;
#230 = LINE ( 'NONE', #200, #277 ) ;
#231 = DIRECTION ( 'NONE',  ( 1.000000000000000000, -0.0000000000000000000, -0.0000000000000000000 ) ) ;
#232 = PRODUCT_RELATED_PRODUCT_CATEGORY ( 'part', '', ( #203 ) ) ;
#233 = CARTESIAN_POINT ( 'NONE',  ( -6.017094017094014369, 25.00000000000000000, 0.0000000000000000000 ) ) ;
#234 = VECTOR ( 'NONE', #63, 999.9999999999998863 ) ;
#235 = CARTESIAN_POINT ( 'NONE',  ( -5.517094017093993052, 0.0000000000000000000, 25.00000000000000000 ) ) ;
#236 = ORIENTED_EDGE ( 'NONE', *, *, #29, .F. ) ;
#237 = DIRECTION ( 'NONE',  ( 0.0000000000000000000, 0.0000000000000000000, 1.000000000000000000 ) ) ;
#238 = EDGE_LOOP ( 'NONE', ( #172, #122 ) ) ;
#239 = CIRCLE ( 'NONE', #107, 25.00000000000000000 ) ;
#240 = EDGE_LOOP ( 'NONE', ( #312, #46 ) ) ;
#241 = EDGE_CURVE ( 'NONE', #265, #216, #5, .T. ) ;
#242 = VERTEX_POINT ( 'NONE', #158 ) ;
#243 = VERTEX_POINT ( 'NONE', #181 ) ;
#244 = DIRECTION ( 'NONE',  ( -1.000000000000000000, -0.0000000000000000000, -0.0000000000000000000 ) ) ;
#245 = MECHANICAL_DESIGN_GEOMETRIC_PRESENTATION_REPRESENTATION (  '', ( #78 ), #264 ) ;
#246 = CARTESIAN_POINT ( 'NONE',  ( -46.22222222222222143, 0.0000000000000000000, 0.0000000000000000000 ) ) ;
#247 = DIRECTION ( 'NONE',  ( 0.0000000000000000000, 0.0000000000000000000, -1.000000000000000000 ) ) ;
#248 = MECHANICAL_DESIGN_GEOMETRIC_PRESENTATION_REPRESENTATION (  '', ( #133 ), #71 ) ;
#249 =( LENGTH_UNIT ( ) NAMED_UNIT ( * ) SI_UNIT ( .MILLI., .METRE. ) );
#250 = EDGE_CURVE ( 'NONE', #70, #243, #146, .T. ) ;
#251 = DIRECTION ( 'NONE',  ( 0.0000000000000000000, 0.0000000000000000000, 1.000000000000000000 ) ) ;
#252 = LINE ( 'NONE', #136, #97 ) ;
#253 = DIRECTION ( 'NONE',  ( 0.0000000000000000000, 0.0000000000000000000, 1.000000000000000000 ) ) ;
#254 = ADVANCED_FACE ( 'NONE', ( #257 ), #98, .F. ) ;
#255 = DIRECTION ( 'NONE',  ( -1.000000000000000000, -0.0000000000000000000, -0.0000000000000000000 ) ) ;
#256 = SURFACE_STYLE_FILL_AREA ( #165 ) ;
#257 = FACE_OUTER_BOUND ( 'NONE', #215, .T. ) ;
#258 = AXIS2_PLACEMENT_3D ( 'NONE', #273, #231, #81 ) ;
#259 = EDGE_CURVE ( 'NONE', #242, #148, #183, .T. ) ;
#260 = VERTEX_POINT ( 'NONE', #9 ) ;
#261 = VERTEX_POINT ( 'NONE', #297 ) ;
#262 = AXIS2_PLACEMENT_3D ( 'NONE', #246, #222, #2 ) ;
#263 = ORIENTED_EDGE ( 'NONE', *, *, #56, .F. ) ;
#264 =( GEOMETRIC_REPRESENTATION_CONTEXT ( 3 ) GLOBAL_UNCERTAINTY_ASSIGNED_CONTEXT ( ( #32 ) ) GLOBAL_UNIT_ASSIGNED_CONTEXT ( ( #43, #185, #167 ) ) REPRESENTATION_CONTEXT ( 'NONE', 'WORKASPACE' ) );
#265 = VERTEX_POINT ( 'NONE', #57 ) ;
#266 = LINE ( 'NONE', #150, #171 ) ;
#267 = AXIS2_PLACEMENT_3D ( 'NONE', #156, #61, #251 ) ;
#268 = PRESENTATION_STYLE_ASSIGNMENT (( #26 ) ) ;
#269 = CARTESIAN_POINT ( 'NONE',  ( -6.017094017094014369, 5.510910596163089556E-15, -45.00000000000000000 ) ) ;
#270 = EDGE_CURVE ( 'NONE', #261, #148, #252, .T. ) ;
#271 = CIRCLE ( 'NONE', #223, 45.00000000000000000 ) ;
#272 = CLOSED_SHELL ( 'NONE', ( #105, #112, #195, #161, #313, #101, #191, #62, #304, #254 ) ) ;
#273 = CARTESIAN_POINT ( 'NONE',  ( 93.48290598290599007, 0.0000000000000000000, 0.0000000000000000000 ) ) ;
#274 = DIRECTION ( 'NONE',  ( -0.0000000000000000000, 0.0000000000000000000, 1.000000000000000000 ) ) ;
#275 = DIRECTION ( 'NONE',  ( 0.0000000000000000000, 0.0000000000000000000, 1.000000000000000000 ) ) ;
#276 = EDGE_CURVE ( 'NONE', #70, #66, #83, .T. ) ;
#277 = VECTOR ( 'NONE', #227, 1000.000000000000000 ) ;
#278 = DIRECTION ( 'NONE',  ( -1.000000000000000000, -0.0000000000000000000, -0.0000000000000000000 ) ) ;
#279 = CARTESIAN_POINT ( 'NONE',  ( -5.517094017093993052, 3.061616997868383043E-15, -25.00000000000000000 ) ) ;
#280 = VERTEX_POINT ( 'NONE', #14 ) ;
#281 = APPLICATION_PROTOCOL_DEFINITION ( 'draft international standard', 'automotive_design', 1998, #20 ) ;
#282 = AXIS2_PLACEMENT_3D ( 'NONE', #10, #55, #253 ) ;
#283 = EDGE_LOOP ( 'NONE', ( #306, #170, #44, #310 ) ) ;
#284 = CARTESIAN_POINT ( 'NONE',  ( -6.017094017094014369, 0.0000000000000000000, 0.0000000000000000000 ) ) ;
#285 = ORIENTED_EDGE ( 'NONE', *, *, #169, .F. ) ;
#286 = ORIENTED_EDGE ( 'NONE', *, *, #147, .F. ) ;
#287 = EDGE_CURVE ( 'NONE', #243, #70, #271, .T. ) ;
#288 = EDGE_LOOP ( 'NONE', ( #124, #263, #94, #236 ) ) ;
#289 = DIRECTION ( 'NONE',  ( -1.000000000000000000, 0.0000000000000000000, 0.0000000000000000000 ) ) ;
#290 = ORIENTED_EDGE ( 'NONE', *, *, #221, .F. ) ;
#291 = AXIS2_PLACEMENT_3D ( 'NONE', #28, #314, #131 ) ;
#292 = FACE_OUTER_BOUND ( 'NONE', #190, .T. ) ;
#293 = EDGE_CURVE ( 'NONE', #260, #280, #89, .T. ) ;
#294 = CYLINDRICAL_SURFACE ( 'NONE', #40, 45.00000000000000000 ) ;
#295 = PRESENTATION_LAYER_ASSIGNMENT (  '', '', ( #78 ) ) ;
#296 = CARTESIAN_POINT ( 'NONE',  ( 93.98290598290599007, 0.0000000000000000000, 0.0000000000000000000 ) ) ;
#297 = CARTESIAN_POINT ( 'NONE',  ( 93.48290598290599007, 0.0000000000000000000, 25.00000000000000000 ) ) ;
#298 = DIRECTION ( 'NONE',  ( -1.000000000000000000, -0.0000000000000000000, -0.0000000000000000000 ) ) ;
#299 = FILL_AREA_STYLE_COLOUR ( '', #302 ) ;
#300 = CIRCLE ( 'NONE', #291, 25.50000000000003553 ) ;
#301 = CARTESIAN_POINT ( 'NONE',  ( -46.22222222222222143, 0.0000000000000000000, 45.00000000000000000 ) ) ;
#302 = COLOUR_RGB ( '',0.7921568627450980005, 0.8196078431372548767, 0.9333333333333333481 ) ;
#303 = SURFACE_STYLE_USAGE ( .BOTH. , #209 ) ;
#304 = ADVANCED_FACE ( 'NONE', ( #117 ), #13, .F. ) ;
#305 = DIRECTION ( 'NONE',  ( 0.0000000000000000000, 0.0000000000000000000, 1.000000000000000000 ) ) ;
#306 = ORIENTED_EDGE ( 'NONE', *, *, #250, .T. ) ;
#307 = DIRECTION ( 'NONE',  ( 0.0000000000000000000, 0.0000000000000000000, -1.000000000000000000 ) ) ;
#308 = CONICAL_SURFACE ( 'NONE', #267, 25.00000000000000000, 0.7853981633974621568 ) ;
#309 = EDGE_CURVE ( 'NONE', #280, #216, #188, .T. ) ;
#310 = ORIENTED_EDGE ( 'NONE', *, *, #276, .F. ) ;
#311 = CIRCLE ( 'NONE', #194, 25.00000000000000000 ) ;
#312 = ORIENTED_EDGE ( 'NONE', *, *, #250, .F. ) ;
#313 = ADVANCED_FACE ( 'NONE', ( #119, #140 ), #92, .F. ) ;
#314 = DIRECTION ( 'NONE',  ( 1.000000000000000000, 0.0000000000000000000, 0.0000000000000000000 ) ) ;
ENDSEC;
END-ISO-10303-21;
