ISO-10303-21;
HEADER;
FILE_DESCRIPTION (( 'STEP AP214' ),
    '1' );
FILE_NAME ('BRM 36x6.step',
    '2020-09-08T10:23:45',
    ( '' ),
    ( '' ),
    'SwSTEP 2.0',
    'SolidWorks 2020',
    '' );
FILE_SCHEMA (( 'AUTOMOTIVE_DESIGN' ));
ENDSEC;

DATA;
#1 = AXIS2_PLACEMENT_3D ( 'NONE', #165, #103, #123 ) ;
#2 = CARTESIAN_POINT ( 'NONE',  ( -46.22222222222222143, 4.592425496802574367E-15, -37.50000000000000000 ) ) ;
#3 = PRESENTATION_STYLE_ASSIGNMENT (( #31 ) ) ;
#4 = CARTESIAN_POINT ( 'NONE',  ( -46.22222222222222143, 0.0000000000000000000, 0.0000000000000000000 ) ) ;
#5 = SURFACE_STYLE_FILL_AREA ( #268 ) ;
#6 = ORIENTED_EDGE ( 'NONE', *, *, #55, .F. ) ;
#7 = EDGE_CURVE ( 'NONE', #155, #252, #305, .T. ) ;
#8 =( NAMED_UNIT ( * ) SI_UNIT ( $, .STERADIAN. ) SOLID_ANGLE_UNIT ( ) );
#9 = VERTEX_POINT ( 'NONE', #229 ) ;
#10 = VERTEX_POINT ( 'NONE', #158 ) ;
#11 = ORIENTED_EDGE ( 'NONE', *, *, #39, .T. ) ;
#12 = CARTESIAN_POINT ( 'NONE',  ( -5.517094017094049008, 0.0000000000000000000, 0.0000000000000000000 ) ) ;
#13 = EDGE_CURVE ( 'NONE', #135, #67, #237, .T. ) ;
#14 = ORIENTED_EDGE ( 'NONE', *, *, #146, .F. ) ;
#15 = ORIENTED_EDGE ( 'NONE', *, *, #39, .F. ) ;
#16 = DIRECTION ( 'NONE',  ( -1.000000000000000000, -0.0000000000000000000, -0.0000000000000000000 ) ) ;
#17 = ORIENTED_EDGE ( 'NONE', *, *, #175, .T. ) ;
#18 = CIRCLE ( 'NONE', #217, 18.50000000000000355 ) ;
#19 = CARTESIAN_POINT ( 'NONE',  ( -46.22222222222222143, 0.0000000000000000000, 18.00000000000000000 ) ) ;
#20 = PLANE ( 'NONE',  #254 ) ;
#21 = ADVANCED_FACE ( 'NONE', ( #264 ), #191, .F. ) ;
#22 = DIRECTION ( 'NONE',  ( 0.0000000000000000000, 0.0000000000000000000, 1.000000000000000000 ) ) ;
#23 = AXIS2_PLACEMENT_3D ( 'NONE', #141, #16, #162 ) ;
#24 = FACE_BOUND ( 'NONE', #117, .T. ) ;
#25 = EDGE_CURVE ( 'NONE', #10, #9, #72, .T. ) ;
#26 = AXIS2_PLACEMENT_3D ( 'NONE', #107, #28, #61 ) ;
#27 = AXIS2_PLACEMENT_3D ( 'NONE', #132, #130, #77 ) ;
#28 = DIRECTION ( 'NONE',  ( 1.000000000000000000, 0.0000000000000000000, 0.0000000000000000000 ) ) ;
#29 = APPLICATION_PROTOCOL_DEFINITION ( 'draft international standard', 'automotive_design', 1998, #184 ) ;
#30 = PRODUCT_DEFINITION_CONTEXT ( 'detailed design', #184, 'design' ) ;
#31 = SURFACE_STYLE_USAGE ( .BOTH. , #222 ) ;
#32 = DIRECTION ( 'NONE',  ( -1.000000000000000000, -0.0000000000000000000, -0.0000000000000000000 ) ) ;
#33 = EDGE_CURVE ( 'NONE', #9, #38, #211, .T. ) ;
#34 = CARTESIAN_POINT ( 'NONE',  ( -5.517094017094049008, 0.0000000000000000000, 0.0000000000000000000 ) ) ;
#35 = ORIENTED_EDGE ( 'NONE', *, *, #7, .F. ) ;
#36 = CARTESIAN_POINT ( 'NONE',  ( 65.98290598290599007, 2.265596578422603791E-15, 18.50000000000000355 ) ) ;
#37 = AXIS2_PLACEMENT_3D ( 'NONE', #265, #190, #312 ) ;
#38 = VERTEX_POINT ( 'NONE', #287 ) ;
#39 = EDGE_CURVE ( 'NONE', #161, #10, #283, .T. ) ;
#40 = DIRECTION ( 'NONE',  ( 0.0000000000000000000, 0.0000000000000000000, 1.000000000000000000 ) ) ;
#41 = ORIENTED_EDGE ( 'NONE', *, *, #299, .T. ) ;
#42 = CYLINDRICAL_SURFACE ( 'NONE', #23, 37.50000000000000000 ) ;
#43 = ORIENTED_EDGE ( 'NONE', *, *, #55, .T. ) ;
#44 = CARTESIAN_POINT ( 'NONE',  ( 65.98290598290599007, 0.0000000000000000000, 0.0000000000000000000 ) ) ;
#45 = ORIENTED_EDGE ( 'NONE', *, *, #7, .T. ) ;
#46 = AXIS2_PLACEMENT_3D ( 'NONE', #125, #145, #218 ) ;
#47 = CARTESIAN_POINT ( 'NONE',  ( 65.98290598290599007, 4.592425496802574367E-15, -37.50000000000000000 ) ) ;
#48 = CARTESIAN_POINT ( 'NONE',  ( -5.517094017094049008, 0.0000000000000000000, 0.0000000000000000000 ) ) ;
#49 = DIRECTION ( 'NONE',  ( 0.0000000000000000000, 0.0000000000000000000, -1.000000000000000000 ) ) ;
#50 = DIRECTION ( 'NONE',  ( -1.000000000000000000, -0.0000000000000000000, -0.0000000000000000000 ) ) ;
#51 = CONICAL_SURFACE ( 'NONE', #106, 18.50000000000000355, 0.7853981633974517207 ) ;
#52 = PRODUCT_DEFINITION ( 'UNKNOWN', '', #231, #30 ) ;
#53 =( NAMED_UNIT ( * ) SI_UNIT ( $, .STERADIAN. ) SOLID_ANGLE_UNIT ( ) );
#54 = VECTOR ( 'NONE', #241, 1000.000000000000000 ) ;
#55 = EDGE_CURVE ( 'NONE', #9, #307, #192, .T. ) ;
#56 = CARTESIAN_POINT ( 'NONE',  ( -5.517094017094049008, 0.0000000000000000000, 0.0000000000000000000 ) ) ;
#57 = CIRCLE ( 'NONE', #206, 37.50000000000000000 ) ;
#58 = CARTESIAN_POINT ( 'NONE',  ( 65.48290598290599007, 0.0000000000000000000, 0.0000000000000000000 ) ) ;
#59 = DIRECTION ( 'NONE',  ( -1.000000000000000000, -0.0000000000000000000, -0.0000000000000000000 ) ) ;
#60 = DIRECTION ( 'NONE',  ( 0.0000000000000000000, 0.0000000000000000000, 1.000000000000000000 ) ) ;
#61 = DIRECTION ( 'NONE',  ( 0.0000000000000000000, 0.0000000000000000000, -1.000000000000000000 ) ) ;
#62 = ORIENTED_EDGE ( 'NONE', *, *, #78, .F. ) ;
#63 = COLOUR_RGB ( '',0.7921568627450980005, 0.8196078431372548767, 0.9333333333333333481 ) ;
#64 = ORIENTED_EDGE ( 'NONE', *, *, #240, .F. ) ;
#65 = EDGE_CURVE ( 'NONE', #304, #235, #230, .T. ) ;
#66 = DIRECTION ( 'NONE',  ( -1.000000000000000000, 0.0000000000000000000, 0.0000000000000000000 ) ) ;
#67 = VERTEX_POINT ( 'NONE', #47 ) ;
#68 = CARTESIAN_POINT ( 'NONE',  ( 65.98290598290599007, 0.0000000000000000000, 0.0000000000000000000 ) ) ;
#69 = ORIENTED_EDGE ( 'NONE', *, *, #246, .F. ) ;
#70 = AXIS2_PLACEMENT_3D ( 'NONE', #12, #66, #160 ) ;
#71 = DIRECTION ( 'NONE',  ( 1.000000000000000000, 0.0000000000000000000, 0.0000000000000000000 ) ) ;
#72 = LINE ( 'NONE', #19, #54 ) ;
#73 = ADVANCED_FACE ( 'NONE', ( #282 ), #168, .T. ) ;
#74 =( GEOMETRIC_REPRESENTATION_CONTEXT ( 3 ) GLOBAL_UNCERTAINTY_ASSIGNED_CONTEXT ( ( #151 ) ) GLOBAL_UNIT_ASSIGNED_CONTEXT ( ( #228, #83, #8 ) ) REPRESENTATION_CONTEXT ( 'NONE', 'WORKASPACE' ) );
#75 = FILL_AREA_STYLE_COLOUR ( '', #238 ) ;
#76 = UNCERTAINTY_MEASURE_WITH_UNIT (LENGTH_MEASURE( 1.000000000000000082E-05 ), #176, 'distance_accuracy_value', 'NONE');
#77 = DIRECTION ( 'NONE',  ( 1.000000000000000000, 0.0000000000000000000, 0.0000000000000000000 ) ) ;
#78 = EDGE_CURVE ( 'NONE', #209, #307, #126, .T. ) ;
#79 = PRESENTATION_LAYER_ASSIGNMENT (  '', '', ( #164 ) ) ;
#80 = VECTOR ( 'NONE', #172, 1000.000000000000114 ) ;
#81 = FACE_OUTER_BOUND ( 'NONE', #253, .T. ) ;
#82 = APPLICATION_PROTOCOL_DEFINITION ( 'draft international standard', 'automotive_design', 1998, #166 ) ;
#83 =( NAMED_UNIT ( * ) PLANE_ANGLE_UNIT ( ) SI_UNIT ( $, .RADIAN. ) );
#84 = CIRCLE ( 'NONE', #200, 18.00000000000000000 ) ;
#85 = DIRECTION ( 'NONE',  ( 0.0000000000000000000, 0.0000000000000000000, 1.000000000000000000 ) ) ;
#86 = ORIENTED_EDGE ( 'NONE', *, *, #33, .F. ) ;
#87 = DIRECTION ( 'NONE',  ( 1.000000000000000000, -0.0000000000000000000, -0.0000000000000000000 ) ) ;
#88 = DIRECTION ( 'NONE',  ( -1.000000000000000000, -0.0000000000000000000, -0.0000000000000000000 ) ) ;
#89 = PRESENTATION_STYLE_ASSIGNMENT (( #226 ) ) ;
#90 = EDGE_LOOP ( 'NONE', ( #279, #111, #301, #142 ) ) ;
#91 = CLOSED_SHELL ( 'NONE', ( #292, #115, #225, #286, #255, #73, #108, #220, #127, #21 ) ) ;
#92 = ORIENTED_EDGE ( 'NONE', *, *, #33, .T. ) ;
#93 = EDGE_LOOP ( 'NONE', ( #205, #11, #114, #92 ) ) ;
#94 = EDGE_LOOP ( 'NONE', ( #260, #64 ) ) ;
#95 = ADVANCED_BREP_SHAPE_REPRESENTATION ( 'BRM 36x6', ( #198, #27 ), #179 ) ;
#96 = CARTESIAN_POINT ( 'NONE',  ( -46.22222222222222143, 0.0000000000000000000, 37.50000000000000000 ) ) ;
#97 = DIRECTION ( 'NONE',  ( 0.0000000000000000000, 0.0000000000000000000, 1.000000000000000000 ) ) ;
#98 = AXIS2_PLACEMENT_3D ( 'NONE', #313, #101, #291 ) ;
#99 = CARTESIAN_POINT ( 'NONE',  ( -6.017094017094014369, 0.0000000000000000000, 0.0000000000000000000 ) ) ;
#100 = LINE ( 'NONE', #244, #80 ) ;
#101 = DIRECTION ( 'NONE',  ( -1.000000000000000000, 0.0000000000000000000, -0.0000000000000000000 ) ) ;
#102 = CARTESIAN_POINT ( 'NONE',  ( -6.017094017094014369, 0.0000000000000000000, 37.50000000000000000 ) ) ;
#103 = DIRECTION ( 'NONE',  ( 1.000000000000000000, -0.0000000000000000000, -0.0000000000000000000 ) ) ;
#104 = CIRCLE ( 'NONE', #266, 37.50000000000000000 ) ;
#105 =( LENGTH_UNIT ( ) NAMED_UNIT ( * ) SI_UNIT ( .MILLI., .METRE. ) );
#106 = AXIS2_PLACEMENT_3D ( 'NONE', #68, #259, #144 ) ;
#107 = CARTESIAN_POINT ( 'NONE',  ( -6.017094017094014369, 0.0000000000000000000, 0.0000000000000000000 ) ) ;
#108 = ADVANCED_FACE ( 'NONE', ( #24, #128 ), #219, .F. ) ;
#109 = PRODUCT_DEFINITION_SHAPE ( 'NONE', 'NONE',  #52 ) ;
#110 = FACE_OUTER_BOUND ( 'NONE', #93, .T. ) ;
#111 = ORIENTED_EDGE ( 'NONE', *, *, #240, .T. ) ;
#112 = AXIS2_PLACEMENT_3D ( 'NONE', #48, #171, #216 ) ;
#113 = ORIENTED_EDGE ( 'NONE', *, *, #25, .F. ) ;
#114 = ORIENTED_EDGE ( 'NONE', *, *, #25, .T. ) ;
#115 = ADVANCED_FACE ( 'NONE', ( #81 ), #297, .F. ) ;
#116 = FACE_OUTER_BOUND ( 'NONE', #306, .T. ) ;
#117 = EDGE_LOOP ( 'NONE', ( #236, #45 ) ) ;
#118 = EDGE_LOOP ( 'NONE', ( #140, #138 ) ) ;
#119 = ORIENTED_EDGE ( 'NONE', *, *, #299, .F. ) ;
#120 = FACE_OUTER_BOUND ( 'NONE', #181, .T. ) ;
#121 = ORIENTED_EDGE ( 'NONE', *, *, #186, .F. ) ;
#122 = CARTESIAN_POINT ( 'NONE',  ( -5.517094017094049008, 0.0000000000000000000, 18.00000000000000000 ) ) ;
#123 = DIRECTION ( 'NONE',  ( 0.0000000000000000000, 0.0000000000000000000, -1.000000000000000000 ) ) ;
#124 = LINE ( 'NONE', #96, #150 ) ;
#125 = CARTESIAN_POINT ( 'NONE',  ( -6.017094017094014369, 0.0000000000000000000, 0.0000000000000000000 ) ) ;
#126 = CIRCLE ( 'NONE', #46, 18.49999999999997513 ) ;
#127 = ADVANCED_FACE ( 'NONE', ( #116 ), #309, .F. ) ;
#128 = FACE_OUTER_BOUND ( 'NONE', #94, .T. ) ;
#129 = VECTOR ( 'NONE', #157, 1000.000000000000000 ) ;
#130 = DIRECTION ( 'NONE',  ( 0.0000000000000000000, 0.0000000000000000000, 1.000000000000000000 ) ) ;
#131 = AXIS2_PLACEMENT_3D ( 'NONE', #272, #88, #60 ) ;
#132 = CARTESIAN_POINT ( 'NONE',  ( 0.0000000000000000000, 0.0000000000000000000, 0.0000000000000000000 ) ) ;
#133 = DIRECTION ( 'NONE',  ( -1.000000000000000000, 0.0000000000000000000, 0.0000000000000000000 ) ) ;
#134 = DIRECTION ( 'NONE',  ( 0.7071067811865451302, 8.659560562354962440E-17, 0.7071067811865500152 ) ) ;
#135 = VERTEX_POINT ( 'NONE', #139 ) ;
#136 = AXIS2_PLACEMENT_3D ( 'NONE', #245, #308, #290 ) ;
#137 = LINE ( 'NONE', #232, #129 ) ;
#138 = ORIENTED_EDGE ( 'NONE', *, *, #78, .T. ) ;
#139 = CARTESIAN_POINT ( 'NONE',  ( 65.98290598290599007, 0.0000000000000000000, 37.50000000000000000 ) ) ;
#140 = ORIENTED_EDGE ( 'NONE', *, *, #146, .T. ) ;
#141 = CARTESIAN_POINT ( 'NONE',  ( -46.22222222222222143, 0.0000000000000000000, 0.0000000000000000000 ) ) ;
#142 = ORIENTED_EDGE ( 'NONE', *, *, #243, .F. ) ;
#143 = CIRCLE ( 'NONE', #70, 18.00000000000000000 ) ;
#144 = DIRECTION ( 'NONE',  ( 0.0000000000000000000, 0.0000000000000000000, -1.000000000000000000 ) ) ;
#145 = DIRECTION ( 'NONE',  ( 1.000000000000000000, 0.0000000000000000000, 0.0000000000000000000 ) ) ;
#146 = EDGE_CURVE ( 'NONE', #307, #209, #221, .T. ) ;
#147 = FILL_AREA_STYLE ('',( #75 ) ) ;
#148 =( NAMED_UNIT ( * ) PLANE_ANGLE_UNIT ( ) SI_UNIT ( $, .RADIAN. ) );
#149 = PRODUCT ( 'BRM 36x6', 'BRM 36x6', '', ( #247 ) ) ;
#150 = VECTOR ( 'NONE', #280, 1000.000000000000000 ) ;
#151 = UNCERTAINTY_MEASURE_WITH_UNIT (LENGTH_MEASURE( 1.000000000000000082E-05 ), #228, 'distance_accuracy_value', 'NONE');
#152 =( NAMED_UNIT ( * ) SI_UNIT ( $, .STERADIAN. ) SOLID_ANGLE_UNIT ( ) );
#153 = CYLINDRICAL_SURFACE ( 'NONE', #288, 18.00000000000000000 ) ;
#154 = PRODUCT_RELATED_PRODUCT_CATEGORY ( 'part', '', ( #149 ) ) ;
#155 = VERTEX_POINT ( 'NONE', #208 ) ;
#156 = ORIENTED_EDGE ( 'NONE', *, *, #159, .F. ) ;
#157 = DIRECTION ( 'NONE',  ( -1.000000000000000000, -0.0000000000000000000, -0.0000000000000000000 ) ) ;
#158 = CARTESIAN_POINT ( 'NONE',  ( 65.48290598290599007, 0.0000000000000000000, 18.00000000000000000 ) ) ;
#159 = EDGE_CURVE ( 'NONE', #10, #161, #84, .T. ) ;
#160 = DIRECTION ( 'NONE',  ( 0.0000000000000000000, 0.0000000000000000000, -1.000000000000000000 ) ) ;
#161 = VERTEX_POINT ( 'NONE', #302 ) ;
#162 = DIRECTION ( 'NONE',  ( 0.0000000000000000000, 0.0000000000000000000, 1.000000000000000000 ) ) ;
#163 = ORIENTED_EDGE ( 'NONE', *, *, #243, .T. ) ;
#164 = STYLED_ITEM ( 'NONE', ( #89 ), #198 ) ;
#165 = CARTESIAN_POINT ( 'NONE',  ( 65.98290598290599007, 0.0000000000000000000, 0.0000000000000000000 ) ) ;
#166 = APPLICATION_CONTEXT ( 'automotive_design' ) ;
#167 = DIRECTION ( 'NONE',  ( -1.000000000000000000, -0.0000000000000000000, -0.0000000000000000000 ) ) ;
#168 = CYLINDRICAL_SURFACE ( 'NONE', #187, 37.50000000000000000 ) ;
#169 = AXIS2_PLACEMENT_3D ( 'NONE', #188, #207, #183 ) ;
#170 = CARTESIAN_POINT ( 'NONE',  ( -6.017094017094014369, 0.0000000000000000000, 18.49999999999997513 ) ) ;
#171 = DIRECTION ( 'NONE',  ( -1.000000000000000000, 0.0000000000000000000, 0.0000000000000000000 ) ) ;
#172 = DIRECTION ( 'NONE',  ( 0.7071067811865451302, 0.0000000000000000000, -0.7071067811865500152 ) ) ;
#173 = AXIS2_PLACEMENT_3D ( 'NONE', #34, #273, #300 ) ;
#174 = PRESENTATION_LAYER_ASSIGNMENT (  '', '', ( #284 ) ) ;
#175 = EDGE_CURVE ( 'NONE', #67, #235, #203, .T. ) ;
#176 =( LENGTH_UNIT ( ) NAMED_UNIT ( * ) SI_UNIT ( .MILLI., .METRE. ) );
#177 = FACE_OUTER_BOUND ( 'NONE', #185, .T. ) ;
#178 = VECTOR ( 'NONE', #202, 1000.000000000000000 ) ;
#179 =( GEOMETRIC_REPRESENTATION_CONTEXT ( 3 ) GLOBAL_UNCERTAINTY_ASSIGNED_CONTEXT ( ( #197 ) ) GLOBAL_UNIT_ASSIGNED_CONTEXT ( ( #105, #314, #53 ) ) REPRESENTATION_CONTEXT ( 'NONE', 'WORKASPACE' ) );
#180 = CARTESIAN_POINT ( 'NONE',  ( -6.017094017094014369, 4.592425496802574367E-15, -37.50000000000000000 ) ) ;
#181 = EDGE_LOOP ( 'NONE', ( #156, #281, #227, #256 ) ) ;
#182 = SURFACE_SIDE_STYLE ('',( #5 ) ) ;
#183 = DIRECTION ( 'NONE',  ( 0.0000000000000000000, 0.0000000000000000000, 1.000000000000000000 ) ) ;
#184 = APPLICATION_CONTEXT ( 'automotive_design' ) ;
#185 = EDGE_LOOP ( 'NONE', ( #303, #276, #258, #113 ) ) ;
#186 = EDGE_CURVE ( 'NONE', #10, #155, #275, .T. ) ;
#187 = AXIS2_PLACEMENT_3D ( 'NONE', #194, #50, #97 ) ;
#188 = CARTESIAN_POINT ( 'NONE',  ( 65.98290598290599007, 0.0000000000000000000, 0.0000000000000000000 ) ) ;
#189 = EDGE_LOOP ( 'NONE', ( #298, #17, #214, #69 ) ) ;
#190 = DIRECTION ( 'NONE',  ( -1.000000000000000000, -0.0000000000000000000, -0.0000000000000000000 ) ) ;
#191 = CONICAL_SURFACE ( 'NONE', #1, 18.50000000000000355, 0.7853981633974517207 ) ;
#192 = LINE ( 'NONE', #122, #262 ) ;
#193 = CARTESIAN_POINT ( 'NONE',  ( -6.017094017094014369, 18.00000000000000000, 0.0000000000000000000 ) ) ;
#194 = CARTESIAN_POINT ( 'NONE',  ( -46.22222222222222143, 0.0000000000000000000, 0.0000000000000000000 ) ) ;
#195 = DIRECTION ( 'NONE',  ( -0.7071067811865402453, 8.659560562355021605E-17, -0.7071067811865549002 ) ) ;
#196 = MECHANICAL_DESIGN_GEOMETRIC_PRESENTATION_REPRESENTATION (  '', ( #164 ), #74 ) ;
#197 = UNCERTAINTY_MEASURE_WITH_UNIT (LENGTH_MEASURE( 1.000000000000000082E-05 ), #105, 'distance_accuracy_value', 'NONE');
#198 = MANIFOLD_SOLID_BREP ( 'Chamfer1', #91 ) ;
#199 = EDGE_CURVE ( 'NONE', #161, #38, #137, .T. ) ;
#200 = AXIS2_PLACEMENT_3D ( 'NONE', #58, #87, #269 ) ;
#201 =( GEOMETRIC_REPRESENTATION_CONTEXT ( 3 ) GLOBAL_UNCERTAINTY_ASSIGNED_CONTEXT ( ( #76 ) ) GLOBAL_UNIT_ASSIGNED_CONTEXT ( ( #176, #148, #152 ) ) REPRESENTATION_CONTEXT ( 'NONE', 'WORKASPACE' ) );
#202 = DIRECTION ( 'NONE',  ( -1.000000000000000000, -0.0000000000000000000, -0.0000000000000000000 ) ) ;
#203 = LINE ( 'NONE', #2, #178 ) ;
#204 = CYLINDRICAL_SURFACE ( 'NONE', #250, 18.00000000000000000 ) ;
#205 = ORIENTED_EDGE ( 'NONE', *, *, #199, .F. ) ;
#206 = AXIS2_PLACEMENT_3D ( 'NONE', #271, #59, #242 ) ;
#207 = DIRECTION ( 'NONE',  ( -1.000000000000000000, -0.0000000000000000000, -0.0000000000000000000 ) ) ;
#208 = CARTESIAN_POINT ( 'NONE',  ( 65.98290598290599007, 2.265596578422603791E-15, 18.50000000000000355 ) ) ;
#209 = VERTEX_POINT ( 'NONE', #224 ) ;
#210 = ORIENTED_EDGE ( 'NONE', *, *, #267, .F. ) ;
#211 = CIRCLE ( 'NONE', #112, 18.00000000000000000 ) ;
#212 = EDGE_LOOP ( 'NONE', ( #121, #15, #274, #35 ) ) ;
#213 = DIRECTION ( 'NONE',  ( 0.0000000000000000000, 0.0000000000000000000, 1.000000000000000000 ) ) ;
#214 = ORIENTED_EDGE ( 'NONE', *, *, #65, .F. ) ;
#215 = LINE ( 'NONE', #289, #223 ) ;
#216 = DIRECTION ( 'NONE',  ( 0.0000000000000000000, 0.0000000000000000000, -1.000000000000000000 ) ) ;
#217 = AXIS2_PLACEMENT_3D ( 'NONE', #44, #167, #213 ) ;
#218 = DIRECTION ( 'NONE',  ( 0.0000000000000000000, 0.0000000000000000000, -1.000000000000000000 ) ) ;
#219 = PLANE ( 'NONE',  #98 ) ;
#220 = ADVANCED_FACE ( 'NONE', ( #110 ), #204, .F. ) ;
#221 = CIRCLE ( 'NONE', #26, 18.49999999999997513 ) ;
#222 = SURFACE_SIDE_STYLE ('',( #293 ) ) ;
#223 = VECTOR ( 'NONE', #195, 1000.000000000000114 ) ;
#224 = CARTESIAN_POINT ( 'NONE',  ( -6.017094017094014369, 2.265596578422600241E-15, -18.49999999999997513 ) ) ;
#225 = ADVANCED_FACE ( 'NONE', ( #177 ), #153, .F. ) ;
#226 = SURFACE_STYLE_USAGE ( .BOTH. , #182 ) ;
#227 = ORIENTED_EDGE ( 'NONE', *, *, #248, .F. ) ;
#228 =( LENGTH_UNIT ( ) NAMED_UNIT ( * ) SI_UNIT ( .MILLI., .METRE. ) );
#229 = CARTESIAN_POINT ( 'NONE',  ( -5.517094017094049008, 0.0000000000000000000, 18.00000000000000000 ) ) ;
#230 = CIRCLE ( 'NONE', #37, 37.50000000000000000 ) ;
#231 = PRODUCT_DEFINITION_FORMATION_WITH_SPECIFIED_SOURCE ( 'ANY', '', #149, .NOT_KNOWN. ) ;
#232 = CARTESIAN_POINT ( 'NONE',  ( -46.22222222222222143, 2.204364238465235428E-15, -18.00000000000000000 ) ) ;
#233 = EDGE_LOOP ( 'NONE', ( #234, #163 ) ) ;
#234 = ORIENTED_EDGE ( 'NONE', *, *, #65, .T. ) ;
#235 = VERTEX_POINT ( 'NONE', #180 ) ;
#236 = ORIENTED_EDGE ( 'NONE', *, *, #248, .T. ) ;
#237 = CIRCLE ( 'NONE', #169, 37.50000000000000000 ) ;
#238 = COLOUR_RGB ( '',0.7921568627450980005, 0.8196078431372548767, 0.9333333333333333481 ) ;
#239 = FACE_OUTER_BOUND ( 'NONE', #233, .T. ) ;
#240 = EDGE_CURVE ( 'NONE', #67, #135, #57, .T. ) ;
#241 = DIRECTION ( 'NONE',  ( -1.000000000000000000, -0.0000000000000000000, -0.0000000000000000000 ) ) ;
#242 = DIRECTION ( 'NONE',  ( 0.0000000000000000000, 0.0000000000000000000, 1.000000000000000000 ) ) ;
#243 = EDGE_CURVE ( 'NONE', #235, #304, #104, .T. ) ;
#244 = CARTESIAN_POINT ( 'NONE',  ( 65.98290598290599007, 0.0000000000000000000, -18.50000000000000355 ) ) ;
#245 = CARTESIAN_POINT ( 'NONE',  ( 65.48290598290599007, 0.0000000000000000000, 0.0000000000000000000 ) ) ;
#246 = EDGE_CURVE ( 'NONE', #135, #304, #124, .T. ) ;
#247 = PRODUCT_CONTEXT ( 'NONE', #166, 'mechanical' ) ;
#248 = EDGE_CURVE ( 'NONE', #252, #155, #18, .T. ) ;
#249 = FILL_AREA_STYLE_COLOUR ( '', #63 ) ;
#250 = AXIS2_PLACEMENT_3D ( 'NONE', #4, #295, #294 ) ;
#251 = CARTESIAN_POINT ( 'NONE',  ( -46.22222222222222143, 0.0000000000000000000, 0.0000000000000000000 ) ) ;
#252 = VERTEX_POINT ( 'NONE', #285 ) ;
#253 = EDGE_LOOP ( 'NONE', ( #210, #41, #14, #6 ) ) ;
#254 = AXIS2_PLACEMENT_3D ( 'NONE', #193, #71, #49 ) ;
#255 = ADVANCED_FACE ( 'NONE', ( #310, #239 ), #20, .F. ) ;
#256 = ORIENTED_EDGE ( 'NONE', *, *, #311, .F. ) ;
#257 = FACE_OUTER_BOUND ( 'NONE', #189, .T. ) ;
#258 = ORIENTED_EDGE ( 'NONE', *, *, #267, .T. ) ;
#259 = DIRECTION ( 'NONE',  ( 1.000000000000000000, -0.0000000000000000000, -0.0000000000000000000 ) ) ;
#260 = ORIENTED_EDGE ( 'NONE', *, *, #13, .F. ) ;
#261 = DIRECTION ( 'NONE',  ( -0.7071067811865402453, 0.0000000000000000000, 0.7071067811865549002 ) ) ;
#262 = VECTOR ( 'NONE', #261, 1000.000000000000114 ) ;
#263 = MECHANICAL_DESIGN_GEOMETRIC_PRESENTATION_REPRESENTATION (  '', ( #284 ), #201 ) ;
#264 = FACE_OUTER_BOUND ( 'NONE', #212, .T. ) ;
#265 = CARTESIAN_POINT ( 'NONE',  ( -6.017094017094014369, 0.0000000000000000000, 0.0000000000000000000 ) ) ;
#266 = AXIS2_PLACEMENT_3D ( 'NONE', #99, #278, #22 ) ;
#267 = EDGE_CURVE ( 'NONE', #38, #9, #143, .T. ) ;
#268 = FILL_AREA_STYLE ('',( #249 ) ) ;
#269 = DIRECTION ( 'NONE',  ( 0.0000000000000000000, 0.0000000000000000000, 1.000000000000000000 ) ) ;
#270 = VECTOR ( 'NONE', #134, 1000.000000000000114 ) ;
#271 = CARTESIAN_POINT ( 'NONE',  ( 65.98290598290599007, 0.0000000000000000000, 0.0000000000000000000 ) ) ;
#272 = CARTESIAN_POINT ( 'NONE',  ( 65.98290598290599007, 0.0000000000000000000, 0.0000000000000000000 ) ) ;
#273 = DIRECTION ( 'NONE',  ( -1.000000000000000000, 0.0000000000000000000, 0.0000000000000000000 ) ) ;
#274 = ORIENTED_EDGE ( 'NONE', *, *, #311, .T. ) ;
#275 = LINE ( 'NONE', #36, #270 ) ;
#276 = ORIENTED_EDGE ( 'NONE', *, *, #199, .T. ) ;
#277 = AXIS2_PLACEMENT_3D ( 'NONE', #56, #133, #40 ) ;
#278 = DIRECTION ( 'NONE',  ( -1.000000000000000000, -0.0000000000000000000, -0.0000000000000000000 ) ) ;
#279 = ORIENTED_EDGE ( 'NONE', *, *, #175, .F. ) ;
#280 = DIRECTION ( 'NONE',  ( -1.000000000000000000, -0.0000000000000000000, -0.0000000000000000000 ) ) ;
#281 = ORIENTED_EDGE ( 'NONE', *, *, #186, .T. ) ;
#282 = FACE_OUTER_BOUND ( 'NONE', #90, .T. ) ;
#283 = CIRCLE ( 'NONE', #136, 18.00000000000000000 ) ;
#284 = STYLED_ITEM ( 'NONE', ( #3 ), #95 ) ;
#285 = CARTESIAN_POINT ( 'NONE',  ( 65.98290598290599007, 0.0000000000000000000, -18.50000000000000355 ) ) ;
#286 = ADVANCED_FACE ( 'NONE', ( #257 ), #42, .T. ) ;
#287 = CARTESIAN_POINT ( 'NONE',  ( -5.517094017094049008, 2.204364238465235428E-15, -18.00000000000000000 ) ) ;
#288 = AXIS2_PLACEMENT_3D ( 'NONE', #251, #32, #85 ) ;
#289 = CARTESIAN_POINT ( 'NONE',  ( -5.517094017094049008, 2.204364238465235428E-15, -18.00000000000000000 ) ) ;
#290 = DIRECTION ( 'NONE',  ( 0.0000000000000000000, 0.0000000000000000000, 1.000000000000000000 ) ) ;
#291 = DIRECTION ( 'NONE',  ( -0.0000000000000000000, 0.0000000000000000000, 1.000000000000000000 ) ) ;
#292 = ADVANCED_FACE ( 'NONE', ( #120 ), #51, .F. ) ;
#293 = SURFACE_STYLE_FILL_AREA ( #147 ) ;
#294 = DIRECTION ( 'NONE',  ( 0.0000000000000000000, 0.0000000000000000000, 1.000000000000000000 ) ) ;
#295 = DIRECTION ( 'NONE',  ( -1.000000000000000000, -0.0000000000000000000, -0.0000000000000000000 ) ) ;
#296 = SHAPE_DEFINITION_REPRESENTATION ( #109, #95 ) ;
#297 = CONICAL_SURFACE ( 'NONE', #277, 18.00000000000000000, 0.7853981633974587151 ) ;
#298 = ORIENTED_EDGE ( 'NONE', *, *, #13, .T. ) ;
#299 = EDGE_CURVE ( 'NONE', #38, #209, #215, .T. ) ;
#300 = DIRECTION ( 'NONE',  ( 0.0000000000000000000, 0.0000000000000000000, 1.000000000000000000 ) ) ;
#301 = ORIENTED_EDGE ( 'NONE', *, *, #246, .T. ) ;
#302 = CARTESIAN_POINT ( 'NONE',  ( 65.48290598290599007, 2.204364238465235428E-15, -18.00000000000000000 ) ) ;
#303 = ORIENTED_EDGE ( 'NONE', *, *, #159, .T. ) ;
#304 = VERTEX_POINT ( 'NONE', #102 ) ;
#305 = CIRCLE ( 'NONE', #131, 18.50000000000000355 ) ;
#306 = EDGE_LOOP ( 'NONE', ( #119, #86, #43, #62 ) ) ;
#307 = VERTEX_POINT ( 'NONE', #170 ) ;
#308 = DIRECTION ( 'NONE',  ( 1.000000000000000000, -0.0000000000000000000, -0.0000000000000000000 ) ) ;
#309 = CONICAL_SURFACE ( 'NONE', #173, 18.00000000000000000, 0.7853981633974587151 ) ;
#310 = FACE_BOUND ( 'NONE', #118, .T. ) ;
#311 = EDGE_CURVE ( 'NONE', #161, #252, #100, .T. ) ;
#312 = DIRECTION ( 'NONE',  ( 0.0000000000000000000, 0.0000000000000000000, 1.000000000000000000 ) ) ;
#313 = CARTESIAN_POINT ( 'NONE',  ( 65.98290598290599007, 37.50000000000000000, 0.0000000000000000000 ) ) ;
#314 =( NAMED_UNIT ( * ) PLANE_ANGLE_UNIT ( ) SI_UNIT ( $, .RADIAN. ) );
ENDSEC;
END-ISO-10303-21;
